  0
SECTION
  2
HEADER
  9
$ACADVER
  1
AC1014
  9
$ACADMAINTVER
 70
     9
  9
$DWGCODEPAGE
  3
ANSI_932
  9
$INSBASE
 10
0.0
 20
0.0
 30
0.0
  9
$EXTMIN
 10
-1132.990342192765
 20
-748.3021002594264
 30
0.0
  9
$EXTMAX
 10
1478.871459253801
 20
1201.254591313567
 30
0.0
  9
$LIMMIN
 10
-4200.0
 20
-2970.0
  9
$LIMMAX
 10
4200.0
 20
2970.0
  9
$ORTHOMODE
 70
     0
  9
$REGENMODE
 70
     1
  9
$FILLMODE
 70
     1
  9
$QTEXTMODE
 70
     0
  9
$MIRRTEXT
 70
     0
  9
$DRAGMODE
 70
     2
  9
$LTSCALE
 40
20.0
  9
$OSMODE
 70
    37
  9
$ATTMODE
 70
     1
  9
$TEXTSIZE
 40
64.0
  9
$TRACEWID
 40
0.05
  9
$TEXTSTYLE
  7
STANDARD
  9
$CLAYER
  8
0
  9
$CELTYPE
  6
CONTINUOUS
  9
$CECOLOR
 62
     7
  9
$CELTSCALE
 40
1.0
  9
$DELOBJ
 70
     1
  9
$DISPSILH
 70
     0
  9
$DIMSCALE
 40
1.0
  9
$DIMASZ
 40
10.0
  9
$DIMEXO
 40
20.0
  9
$DIMDLI
 40
200.0
  9
$DIMRND
 40
0.0
  9
$DIMDLE
 40
0.0
  9
$DIMEXE
 40
30.0
  9
$DIMTP
 40
0.0
  9
$DIMTM
 40
0.0
  9
$DIMTXT
 40
64.0
  9
$DIMCEN
 40
0.0
  9
$DIMTSZ
 40
0.0
  9
$DIMTOL
 70
     0
  9
$DIMLIM
 70
     0
  9
$DIMTIH
 70
     0
  9
$DIMTOH
 70
     0
  9
$DIMSE1
 70
     0
  9
$DIMSE2
 70
     0
  9
$DIMTAD
 70
     1
  9
$DIMZIN
 70
     8
  9
$DIMBLK
  1
DOTBLANK
  9
$DIMASO
 70
     1
  9
$DIMSHO
 70
     0
  9
$DIMPOST
  1

  9
$DIMAPOST
  1

  9
$DIMALT
 70
     0
  9
$DIMALTD
 70
     2
  9
$DIMALTF
 40
25.4
  9
$DIMLFAC
 40
1.0
  9
$DIMTOFL
 70
     1
  9
$DIMTVP
 40
0.0
  9
$DIMTIX
 70
     1
  9
$DIMSOXD
 70
     0
  9
$DIMSAH
 70
     0
  9
$DIMBLK1
  1
DOTBLANK
  9
$DIMBLK2
  1
ORIGIN
  9
$DIMSTYLE
  2
STANDARD
  9
$DIMCLRD
 70
     0
  9
$DIMCLRE
 70
     0
  9
$DIMCLRT
 70
     0
  9
$DIMTFAC
 40
1.0
  9
$DIMGAP
 40
0.09
  9
$DIMJUST
 70
     0
  9
$DIMSD1
 70
     0
  9
$DIMSD2
 70
     0
  9
$DIMTOLJ
 70
     1
  9
$DIMTZIN
 70
     0
  9
$DIMALTZ
 70
     0
  9
$DIMALTTZ
 70
     0
  9
$DIMFIT
 70
     3
  9
$DIMUPT
 70
     0
  9
$DIMUNIT
 70
     2
  9
$DIMDEC
 70
     4
  9
$DIMTDEC
 70
     4
  9
$DIMALTU
 70
     2
  9
$DIMALTTD
 70
     2
  9
$DIMTXSTY
  7
STANDARD
  9
$DIMAUNIT
 70
     0
  9
$LUNITS
 70
     2
  9
$LUPREC
 70
     4
  9
$SKETCHINC
 40
0.1
  9
$FILLETRAD
 40
0.0
  9
$AUNITS
 70
     1
  9
$AUPREC
 70
     3
  9
$MENU
  1
ACAD
  9
$ELEVATION
 40
0.0
  9
$PELEVATION
 40
0.0
  9
$THICKNESS
 40
0.0
  9
$LIMCHECK
 70
     0
  9
$BLIPMODE
 70
     0
  9
$CHAMFERA
 40
0.0
  9
$CHAMFERB
 40
0.0
  9
$CHAMFERC
 40
0.0
  9
$CHAMFERD
 40
0.0
  9
$SKPOLY
 70
     0
  9
$TDCREATE
 40
2449761.493622685
  9
$TDUPDATE
 40
2453973.703668518
  9
$TDINDWG
 40
1.2338343287
  9
$TDUSRTIMER
 40
1.2338341435
  9
$USRTIMER
 70
     1
  9
$ANGBASE
 50
0.0
  9
$ANGDIR
 70
     0
  9
$PDMODE
 70
    35
  9
$PDSIZE
 40
100.0
  9
$PLINEWID
 40
0.0
  9
$COORDS
 70
     2
  9
$SPLFRAME
 70
     0
  9
$SPLINETYPE
 70
     6
  9
$SPLINESEGS
 70
     8
  9
$ATTDIA
 70
     0
  9
$ATTREQ
 70
     1
  9
$HANDLING
 70
-16383
  9
$HANDSEED
  5
1BC
  9
$SURFTAB1
 70
     6
  9
$SURFTAB2
 70
     6
  9
$SURFTYPE
 70
     6
  9
$SURFU
 70
     6
  9
$SURFV
 70
     6
  9
$UCSNAME
  2

  9
$UCSORG
 10
0.0
 20
0.0
 30
0.0
  9
$UCSXDIR
 10
1.0
 20
0.0
 30
0.0
  9
$UCSYDIR
 10
0.0
 20
1.0
 30
0.0
  9
$PUCSNAME
  2

  9
$PUCSORG
 10
0.0
 20
0.0
 30
0.0
  9
$PUCSXDIR
 10
1.0
 20
0.0
 30
0.0
  9
$PUCSYDIR
 10
0.0
 20
1.0
 30
0.0
  9
$USERI1
 70
     0
  9
$USERI2
 70
     0
  9
$USERI3
 70
     0
  9
$USERI4
 70
     0
  9
$USERI5
 70
     0
  9
$USERR1
 40
20.0
  9
$USERR2
 40
0.0
  9
$USERR3
 40
0.0
  9
$USERR4
 40
0.0
  9
$USERR5
 40
0.0
  9
$WORLDVIEW
 70
     1
  9
$SHADEDGE
 70
     3
  9
$SHADEDIF
 70
    70
  9
$TILEMODE
 70
     1
  9
$MAXACTVP
 70
    64
  9
$PINSBASE
 10
0.0
 20
0.0
 30
0.0
  9
$PLIMCHECK
 70
     0
  9
$PEXTMIN
 10
1.000000000000000E+20
 20
1.000000000000000E+20
 30
1.000000000000000E+20
  9
$PEXTMAX
 10
-1.000000000000000E+20
 20
-1.000000000000000E+20
 30
-1.000000000000000E+20
  9
$PLIMMIN
 10
0.0
 20
0.0
  9
$PLIMMAX
 10
12.0
 20
9.0
  9
$UNITMODE
 70
     0
  9
$VISRETAIN
 70
     1
  9
$PLINEGEN
 70
     0
  9
$PSLTSCALE
 70
     1
  9
$TREEDEPTH
 70
  3020
  9
$PICKSTYLE
 70
     0
  9
$CMLSTYLE
  2
STANDARD
  9
$CMLJUST
 70
     0
  9
$CMLSCALE
 40
1.0
  9
$PROXYGRAPHICS
 70
     1
  9
$MEASUREMENT
 70
     0
  0
ENDSEC
  0
SECTION
  2
CLASSES
  0
CLASS
  1
ACDBDICTIONARYWDFLT
  2
AcDbDictionaryWithDefault
  3
AutoCAD 2000
 90
        0
280
     0
281
     0
  0
CLASS
  1
ACDBPLACEHOLDER
  2
AcDbPlaceHolder
  3
AutoCAD 2000
 90
        0
280
     0
281
     0
  0
CLASS
  1
LAYOUT
  2
AcDbLayout
  3
AutoCAD 2000
 90
        0
280
     0
281
     0
  0
CLASS
  1
LONG_TRANSACTION
  2
AcDbLongTransaction
  3
AutoCAD 2000
 90
        0
280
     0
281
     0
  0
CLASS
  1
LWPOLYLINE
  2
AcDbPolyline
  3
AutoCAD 2000
 90
        0
280
     0
281
     1
  0
CLASS
  1
HATCH
  2
AcDbHatch
  3
AutoCAD 2000
 90
        0
280
     0
281
     1
  0
CLASS
  1
XRECORD
  2
AcDbXrecord
  3
AutoCAD 2000
 90
        0
280
     0
281
     0
  0
ENDSEC
  0
SECTION
  2
TABLES
  0
TABLE
  2
VPORT
  5
8
330
0
100
AcDbSymbolTable
 70
     2
  0
VPORT
  5
196
330
8
100
AcDbSymbolTableRecord
100
AcDbViewportTableRecord
  2
*ACTIVE
 70
     0
 10
0.0
 20
0.0
 11
1.0
 21
1.0
 12
276.7275845327449
 22
226.2519294655047
 13
0.0
 23
0.0
 14
50.0
 24
50.0
 15
100.0
 25
100.0
 16
0.0
 26
0.0
 36
1.0
 17
0.0
 27
0.0
 37
0.0
 40
1965.984565203828
 41
1.657997399219765
 42
50.0
 43
0.0
 44
0.0
 50
0.0
 51
0.0
 71
     0
 72
  1000
 73
     1
 74
     0
 75
     0
 76
     0
 77
     0
 78
     0
  0
ENDTAB
  0
TABLE
  2
LTYPE
  5
5
330
0
100
AcDbSymbolTable
 70
     2
  0
LTYPE
  5
13
330
5
100
AcDbSymbolTableRecord
100
AcDbLinetypeTableRecord
  2
BYBLOCK
 70
     0
  3

 72
    65
 73
     0
 40
0.0
  0
LTYPE
  5
14
330
5
100
AcDbSymbolTableRecord
100
AcDbLinetypeTableRecord
  2
BYLAYER
 70
     0
  3

 72
    65
 73
     0
 40
0.0
  0
LTYPE
  5
15
330
5
100
AcDbSymbolTableRecord
100
AcDbLinetypeTableRecord
  2
CONTINUOUS
 70
     0
  3
????
 72
    65
 73
     0
 40
0.0
  0
LTYPE
  5
22
330
5
100
AcDbSymbolTableRecord
100
AcDbLinetypeTableRecord
  2
DASHDOT
 70
     0
  3
____ _ ____ _ ____ _ ____ _ ____ _ ____ _ ____
 72
    65
 73
     4
 40
5.5
 49
4.0
 74
     0
 49
-0.6
 74
     0
 49
0.3
 74
     0
 49
-0.6
 74
     0
  0
ENDTAB
  0
TABLE
  2
LAYER
  5
2
330
0
100
AcDbSymbolTable
 70
    12
  0
LAYER
  5
10
330
2
100
AcDbSymbolTableRecord
100
AcDbLayerTableRecord
  2
0
 70
     0
 62
     7
  6
CONTINUOUS
  0
LAYER
  5
23
330
2
100
AcDbSymbolTableRecord
100
AcDbLayerTableRecord
  2
OUTLINE
 70
     0
 62
     3
  6
CONTINUOUS
  0
LAYER
  5
24
330
2
100
AcDbSymbolTableRecord
100
AcDbLayerTableRecord
  2
DETAIL
 70
     0
 62
     5
  6
CONTINUOUS
  0
LAYER
  5
25
330
2
100
AcDbSymbolTableRecord
100
AcDbLayerTableRecord
  2
BASIS
 70
     0
 62
     6
  6
DASHDOT
  0
LAYER
  5
26
330
2
100
AcDbSymbolTableRecord
100
AcDbLayerTableRecord
  2
SIZE
 70
     0
 62
    30
  6
CONTINUOUS
  0
LAYER
  5
27
330
2
100
AcDbSymbolTableRecord
100
AcDbLayerTableRecord
  2
NOTE
 70
     0
 62
     4
  6
CONTINUOUS
  0
LAYER
  5
28
330
2
100
AcDbSymbolTableRecord
100
AcDbLayerTableRecord
  2
ARRANGE
 70
     0
 62
     1
  6
CONTINUOUS
  0
LAYER
  5
29
330
2
100
AcDbSymbolTableRecord
100
AcDbLayerTableRecord
  2
FIX
 70
     0
 62
    11
  6
CONTINUOUS
  0
LAYER
  5
2A
330
2
100
AcDbSymbolTableRecord
100
AcDbLayerTableRecord
  2
SERVICESPACE
 70
     0
 62
     2
  6
DASHDOT
  0
LAYER
  5
2B
330
2
100
AcDbSymbolTableRecord
100
AcDbLayerTableRecord
  2
ETC
 70
     0
 62
    61
  6
CONTINUOUS
  0
LAYER
  5
2C
330
2
100
AcDbSymbolTableRecord
100
AcDbLayerTableRecord
  2
SYMBOLLINE
 70
     0
 62
    15
  6
CONTINUOUS
  0
LAYER
  5
2D
330
2
100
AcDbSymbolTableRecord
100
AcDbLayerTableRecord
  2
DEFPOINTS
 70
     0
 62
     7
  6
CONTINUOUS
  0
ENDTAB
  0
TABLE
  2
STYLE
  5
3
330
0
100
AcDbSymbolTable
 70
     2
  0
STYLE
  5
11
330
3
100
AcDbSymbolTableRecord
100
AcDbTextStyleTableRecord
  2
STANDARD
 70
     0
 40
0.0
 41
0.9
 50
0.0
 71
     0
 42
64.0
  3
SIMPLEX
  4
BIGFONT
  0
STYLE
  5
2E
330
3
100
AcDbSymbolTableRecord
100
AcDbTextStyleTableRecord
  2
STANDARD1
 70
     0
 40
0.0
 41
1.0
 50
0.0
 71
     0
 42
64.0
  3
MONOTXT
  4
BIGFONT
  0
ENDTAB
  0
TABLE
  2
VIEW
  5
6
330
0
100
AcDbSymbolTable
 70
     1
  0
VIEW
  5
2F
330
6
100
AcDbSymbolTableRecord
100
AcDbViewTableRecord
  2
ALL
 70
     0
 40
6056.230032000001
 10
0.0
 20
58.11501599999999
 41
8400.0
 11
0.0
 21
0.0
 31
1.0
 12
0.0
 22
0.0
 32
0.0
 42
50.0
 43
0.0
 44
0.0
 50
0.0
 71
     0
  0
ENDTAB
  0
TABLE
  2
UCS
  5
7
330
0
100
AcDbSymbolTable
 70
     0
  0
ENDTAB
  0
TABLE
  2
APPID
  5
9
330
0
100
AcDbSymbolTable
 70
     1
  0
APPID
  5
12
330
9
100
AcDbSymbolTableRecord
100
AcDbRegAppTableRecord
  2
ACAD
 70
     0
  0
ENDTAB
  0
TABLE
  2
DIMSTYLE
  5
A
330
0
100
AcDbSymbolTable
 70
     1
  0
DIMSTYLE
105
195
330
A
100
AcDbSymbolTableRecord
100
AcDbDimStyleTableRecord
  2
STANDARD
 70
     0
  3

  4

  5

  6

  7

 40
1.0
 41
0.18
 42
0.0625
 43
0.38
 44
0.18
 45
0.0
 46
0.0
 47
0.0
 48
0.0
140
0.18
141
0.09
142
0.0
143
25.4
144
1.0
145
0.0
146
1.0
147
0.09
 71
     0
 72
     0
 73
     1
 74
     1
 75
     0
 76
     0
 77
     0
 78
     0
170
     0
171
     2
172
     0
173
     0
174
     0
175
     0
176
     0
177
     0
178
     0
270
     2
271
     4
272
     4
273
     2
274
     2
340
11
275
     0
280
     0
281
     0
282
     0
283
     1
284
     0
285
     0
286
     0
287
     3
288
     0
  0
ENDTAB
  0
TABLE
  2
BLOCK_RECORD
  5
1
330
0
100
AcDbSymbolTable
 70
     2
  0
BLOCK_RECORD
  5
1E
102
{ACAD_XDICTIONARY
360
1BA
102
}
330
1
100
AcDbSymbolTableRecord
100
AcDbBlockTableRecord
  2
*MODEL_SPACE
  0
BLOCK_RECORD
  5
1A
102
{ACAD_XDICTIONARY
360
1B8
102
}
330
1
100
AcDbSymbolTableRecord
100
AcDbBlockTableRecord
  2
*PAPER_SPACE
  0
BLOCK_RECORD
  5
34
330
1
100
AcDbSymbolTableRecord
100
AcDbBlockTableRecord
  2
_ORIGIN
  0
BLOCK_RECORD
  5
39
330
1
100
AcDbSymbolTableRecord
100
AcDbBlockTableRecord
  2
_DOTBLANK
  0
ENDTAB
  0
ENDSEC
  0
SECTION
  2
BLOCKS
  0
BLOCK
  5
1F
330
1E
100
AcDbEntity
  8
0
100
AcDbBlockBegin
  2
*MODEL_SPACE
 70
     0
 10
0.0
 20
0.0
 30
0.0
  3
*MODEL_SPACE
  1

  0
ENDBLK
  5
20
330
1E
100
AcDbEntity
  8
0
100
AcDbBlockEnd
  0
BLOCK
  5
1B
330
1A
100
AcDbEntity
 67
     1
  8
0
100
AcDbBlockBegin
  2
*PAPER_SPACE
 70
     0
 10
0.0
 20
0.0
 30
0.0
  3
*PAPER_SPACE
  1

  0
ENDBLK
  5
1C
330
1A
100
AcDbEntity
 67
     1
  8
0
100
AcDbBlockEnd
  0
BLOCK
  5
35
330
34
100
AcDbEntity
  8
0
100
AcDbBlockBegin
  2
_ORIGIN
 70
     0
 10
0.0
 20
0.0
 30
0.0
  3
_ORIGIN
  1

  0
CIRCLE
  5
36
330
34
100
AcDbEntity
  8
0
  6
CONTINUOUS
 62
     7
100
AcDbCircle
 10
0.0
 20
0.0
 30
0.0
 40
0.5
  0
LINE
  5
37
330
34
100
AcDbEntity
  8
0
  6
CONTINUOUS
 62
     7
100
AcDbLine
 10
-0.5
 20
0.0
 30
0.0
 11
-1.0
 21
0.0
 31
0.0
  0
ENDBLK
  5
38
330
34
100
AcDbEntity
  8
0
100
AcDbBlockEnd
  0
BLOCK
  5
3A
330
39
100
AcDbEntity
  8
0
100
AcDbBlockBegin
  2
_DOTBLANK
 70
     0
 10
0.0
 20
0.0
 30
0.0
  3
_DOTBLANK
  1

  0
CIRCLE
  5
3B
330
39
100
AcDbEntity
  8
0
  6
CONTINUOUS
 62
     7
100
AcDbCircle
 10
0.0
 20
0.0
 30
0.0
 40
0.5
  0
LINE
  5
3C
330
39
100
AcDbEntity
  8
0
  6
CONTINUOUS
 62
     7
100
AcDbLine
 10
-0.5
 20
0.0
 30
0.0
 11
-1.0
 21
0.0
 31
0.0
  0
ENDBLK
  5
3D
330
39
100
AcDbEntity
  8
0
100
AcDbBlockEnd
  0
ENDSEC
  0
SECTION
  2
ENTITIES
  0
TEXT
  5
3E
330
1E
100
AcDbEntity
  8
0
  6
CONTINUOUS
 62
     7
100
AcDbText
 10
12761.29
 20
1934.172
 30
0.0
 40
3.2
  1
 
 50
0.000003
 41
0.5989580000000001
  7
STANDARD1
100
AcDbText
  0
TEXT
  5
3F
330
1E
100
AcDbEntity
  8
ETC
  6
CONTINUOUS
 62
    61
100
AcDbText
 10
498.42427654355
 20
1087.991597516998
 30
0.0
 40
64.0
  1
PLFY-P125VLMD-E_3
 41
0.9
100
AcDbText
  0
LINE
  5
40
330
1E
100
AcDbEntity
  8
SIZE
  6
CONTINUOUS
 62
    30
100
AcDbLine
 10
303.0
 20
357.9999999999994
 30
0.0
 11
303.0
 21
1147.254591313567
 31
0.0
  0
LINE
  5
41
330
1E
100
AcDbEntity
  8
SIZE
  6
CONTINUOUS
 62
    30
100
AcDbLine
 10
-303.0
 20
358.0
 30
0.0
 11
-302.9999999999998
 21
1147.254591313567
 31
0.0
  0
LINE
  5
42
330
1E
100
AcDbEntity
  8
SIZE
  6
CONTINUOUS
 62
    30
100
AcDbLine
 10
293.0
 20
1117.254591313567
 30
0.0
 11
-292.9999999999998
 21
1117.254591313567
 31
0.0
  0
CIRCLE
  5
43
330
1E
100
AcDbEntity
  8
SIZE
  6
CONTINUOUS
 62
    30
100
AcDbCircle
 10
303.0
 20
1117.254591313567
 30
0.0
 40
5.0
  0
LINE
  5
44
330
1E
100
AcDbEntity
  8
SIZE
  6
CONTINUOUS
 62
    30
100
AcDbLine
 10
298.0
 20
1117.254591313567
 30
0.0
 11
293.0
 21
1117.254591313567
 31
0.0
  0
CIRCLE
  5
45
330
1E
100
AcDbEntity
  8
SIZE
  6
CONTINUOUS
 62
    30
100
AcDbCircle
 10
-302.9999999999998
 20
1117.254591313567
 30
0.0
 40
5.0
  0
LINE
  5
46
330
1E
100
AcDbEntity
  8
SIZE
  6
CONTINUOUS
 62
    30
100
AcDbLine
 10
-297.9999999999999
 20
1117.254591313567
 30
0.0
 11
-292.9999999999998
 21
1117.254591313567
 31
0.0
  0
TEXT
  5
47
330
1E
100
AcDbEntity
  8
SIZE
  6
CONTINUOUS
 62
    30
100
AcDbText
 10
-72.68571428571423
 20
1137.254591313567
 30
0.0
 40
64.0
  1
606
 41
0.9
 72
     1
 11
0.0000000000000568
 21
1137.254591313567
 31
0.0
100
AcDbText
  0
POINT
  5
48
330
1E
100
AcDbEntity
  8
DEFPOINTS
  6
CONTINUOUS
 62
     7
100
AcDbPoint
 10
303.0
 20
337.9999999999995
 30
0.0
  0
POINT
  5
49
330
1E
100
AcDbEntity
  8
DEFPOINTS
  6
CONTINUOUS
 62
     7
100
AcDbPoint
 10
-303.0
 20
338.0
 30
0.0
  0
POINT
  5
4A
330
1E
100
AcDbEntity
  8
DEFPOINTS
  6
CONTINUOUS
 62
     7
100
AcDbPoint
 10
-302.9999999999998
 20
1117.254591313567
 30
0.0
  0
LINE
  5
4B
330
1E
100
AcDbEntity
  8
NOTE
  6
CONTINUOUS
 62
     4
100
AcDbLine
 10
303.0
 20
193.0000000000007
 30
0.0
 11
793.9180641405308
 21
-124.2954091161218
 31
0.0
  0
LINE
  5
4C
330
1E
100
AcDbEntity
  8
NOTE
  6
CONTINUOUS
 62
     4
100
AcDbLine
 10
287.0
 20
146.0
 30
0.0
 11
812.6112642538029
 21
-342.9336507099942
 31
0.0
  0
LINE
  5
4D
330
1E
100
AcDbEntity
  8
SIZE
  6
CONTINUOUS
 62
    30
100
AcDbLine
 10
415.0
 20
-0.0000000000000057
 30
0.0
 11
689.9226060000001
 21
-0.0000000000000835
 31
0.0
  0
LINE
  5
4E
330
1E
100
AcDbEntity
  8
SIZE
  6
CONTINUOUS
 62
    30
100
AcDbLine
 10
337.0
 20
45.00000000000045
 30
0.0
 11
689.9226060000001
 21
45.00000000000033
 31
0.0
  0
LINE
  5
4F
330
1E
100
AcDbEntity
  8
SIZE
  6
CONTINUOUS
 62
    30
100
AcDbLine
 10
659.9226060000002
 20
55.00000000000034
 30
0.0
 11
659.9226060000002
 21
65.00000000000037
 31
0.0
  0
LINE
  5
50
330
1E
100
AcDbEntity
  8
SIZE
  6
CONTINUOUS
 62
    30
100
AcDbLine
 10
659.9226060000002
 20
-10.00000000000006
 30
0.0
 11
659.9226060000002
 21
-153.2571428571428
 31
0.0
  0
LINE
  5
51
330
1E
100
AcDbEntity
  8
SIZE
  6
CONTINUOUS
 62
    30
100
AcDbLine
 10
659.9226060000002
 20
45.00000000000034
 30
0.0
 11
659.9226060000002
 21
-0.000000000000075
 31
0.0
  0
CIRCLE
  5
52
330
1E
100
AcDbEntity
  8
SIZE
  6
CONTINUOUS
 62
    30
100
AcDbCircle
 10
659.9226060000002
 20
45.00000000000034
 30
0.0
 40
5.0
  0
LINE
  5
53
330
1E
100
AcDbEntity
  8
SIZE
  6
CONTINUOUS
 62
    30
100
AcDbLine
 10
659.9226060000002
 20
50.00000000000034
 30
0.0
 11
659.9226060000002
 21
55.00000000000034
 31
0.0
  0
CIRCLE
  5
54
330
1E
100
AcDbEntity
  8
SIZE
  6
CONTINUOUS
 62
    30
100
AcDbCircle
 10
659.9226060000002
 20
-0.000000000000075
 30
0.0
 40
5.0
  0
LINE
  5
55
330
1E
100
AcDbEntity
  8
SIZE
  6
CONTINUOUS
 62
    30
100
AcDbLine
 10
659.9226060000002
 20
-5.000000000000074
 30
0.0
 11
659.9226060000002
 21
-10.00000000000007
 31
0.0
  0
TEXT
  5
56
330
1E
100
AcDbEntity
  8
SIZE
  6
CONTINUOUS
 62
    30
100
AcDbText
 10
639.922606
 20
-133.2571428571428
 30
0.0
 40
64.0
  1
45
 50
90.0
 41
0.9
 72
     1
 11
639.922606
 21
-86.6285714285714
 31
0.0
100
AcDbText
  0
POINT
  5
57
330
1E
100
AcDbEntity
  8
DEFPOINTS
  6
CONTINUOUS
 62
     7
100
AcDbPoint
 10
395.0
 20
0.0
 30
0.0
  0
POINT
  5
58
330
1E
100
AcDbEntity
  8
DEFPOINTS
  6
CONTINUOUS
 62
     7
100
AcDbPoint
 10
317.0
 20
45.00000000000045
 30
0.0
  0
POINT
  5
59
330
1E
100
AcDbEntity
  8
DEFPOINTS
  6
CONTINUOUS
 62
     7
100
AcDbPoint
 10
659.9226060000002
 20
45.00000000000034
 30
0.0
  0
LINE
  5
5A
330
1E
100
AcDbEntity
  8
SIZE
  6
CONTINUOUS
 62
    30
100
AcDbLine
 10
337.0
 20
337.9999999999995
 30
0.0
 11
710.9832299999998
 21
337.9999999999993
 31
0.0
  0
LINE
  5
5B
330
1E
100
AcDbEntity
  8
SIZE
  6
CONTINUOUS
 62
    30
100
AcDbLine
 10
327.0
 20
145.9999999999998
 30
0.0
 11
710.9832299999998
 21
145.9999999999998
 31
0.0
  0
LINE
  5
5C
330
1E
100
AcDbEntity
  8
SIZE
  6
CONTINUOUS
 62
    30
100
AcDbLine
 10
680.9832299999998
 20
327.9999999999994
 30
0.0
 11
680.9832299999998
 21
155.9999999999998
 31
0.0
  0
CIRCLE
  5
5D
330
1E
100
AcDbEntity
  8
SIZE
  6
CONTINUOUS
 62
    30
100
AcDbCircle
 10
680.9832299999998
 20
337.9999999999993
 30
0.0
 40
5.0
  0
LINE
  5
5E
330
1E
100
AcDbEntity
  8
SIZE
  6
CONTINUOUS
 62
    30
100
AcDbLine
 10
680.9832299999998
 20
332.9999999999993
 30
0.0
 11
680.9832299999998
 21
327.9999999999994
 31
0.0
  0
CIRCLE
  5
5F
330
1E
100
AcDbEntity
  8
SIZE
  6
CONTINUOUS
 62
    30
100
AcDbCircle
 10
680.9832299999998
 20
145.9999999999998
 30
0.0
 40
5.0
  0
LINE
  5
60
330
1E
100
AcDbEntity
  8
SIZE
  6
CONTINUOUS
 62
    30
100
AcDbLine
 10
680.9832299999998
 20
150.9999999999998
 30
0.0
 11
680.9832299999998
 21
155.9999999999998
 31
0.0
  0
TEXT
  5
61
330
1E
100
AcDbEntity
  8
SIZE
  6
CONTINUOUS
 62
    30
100
AcDbText
 10
660.9832299999998
 20
173.4285714285712
 30
0.0
 40
64.0
  1
192
 50
90.0
 41
0.9
 72
     1
 11
660.9832299999998
 21
241.9999999999998
 31
0.0
100
AcDbText
  0
POINT
  5
62
330
1E
100
AcDbEntity
  8
DEFPOINTS
  6
CONTINUOUS
 62
     7
100
AcDbPoint
 10
317.0
 20
337.9999999999995
 30
0.0
  0
POINT
  5
63
330
1E
100
AcDbEntity
  8
DEFPOINTS
  6
CONTINUOUS
 62
     7
100
AcDbPoint
 10
307.0
 20
146.0
 30
0.0
  0
POINT
  5
64
330
1E
100
AcDbEntity
  8
DEFPOINTS
  6
CONTINUOUS
 62
     7
100
AcDbPoint
 10
680.9832299999998
 20
145.9999999999998
 30
0.0
  0
LINE
  5
65
330
1E
100
AcDbEntity
  8
SIZE
  6
CONTINUOUS
 62
    30
100
AcDbLine
 10
337.0
 20
338.0000000000003
 30
0.0
 11
947.9697359999992
 21
338.0000000000003
 31
0.0
  0
LINE
  5
66
330
1E
100
AcDbEntity
  8
SIZE
  6
CONTINUOUS
 62
    30
100
AcDbLine
 10
337.0
 20
48.00000000000046
 30
0.0
 11
947.969735999999
 21
48.00000000000028
 31
0.0
  0
LINE
  5
67
330
1E
100
AcDbEntity
  8
SIZE
  6
CONTINUOUS
 62
    30
100
AcDbLine
 10
917.9697359999991
 20
328.0000000000002
 30
0.0
 11
917.9697359999991
 21
58.00000000000029
 31
0.0
  0
CIRCLE
  5
68
330
1E
100
AcDbEntity
  8
SIZE
  6
CONTINUOUS
 62
    30
100
AcDbCircle
 10
917.9697359999991
 20
338.0000000000003
 30
0.0
 40
5.0
  0
LINE
  5
69
330
1E
100
AcDbEntity
  8
SIZE
  6
CONTINUOUS
 62
    30
100
AcDbLine
 10
917.9697359999991
 20
333.0000000000002
 30
0.0
 11
917.9697359999991
 21
328.0000000000002
 31
0.0
  0
CIRCLE
  5
6A
330
1E
100
AcDbEntity
  8
SIZE
  6
CONTINUOUS
 62
    30
100
AcDbCircle
 10
917.9697359999991
 20
48.00000000000029
 30
0.0
 40
5.0
  0
LINE
  5
6B
330
1E
100
AcDbEntity
  8
SIZE
  6
CONTINUOUS
 62
    30
100
AcDbLine
 10
917.9697359999991
 20
53.00000000000029
 30
0.0
 11
917.9697359999991
 21
58.00000000000029
 31
0.0
  0
TEXT
  5
6C
330
1E
100
AcDbEntity
  8
SIZE
  6
CONTINUOUS
 62
    30
100
AcDbText
 10
897.9697359999992
 20
125.3357481747821
 30
0.0
 40
64.0
  1
290
 50
90.0
 41
0.9
 72
     1
 11
897.9697359999992
 21
199.3928910319249
 31
0.0
100
AcDbText
  0
POINT
  5
6D
330
1E
100
AcDbEntity
  8
DEFPOINTS
  6
CONTINUOUS
 62
     7
100
AcDbPoint
 10
317.0
 20
338.0000000000003
 30
0.0
  0
POINT
  5
6E
330
1E
100
AcDbEntity
  8
DEFPOINTS
  6
CONTINUOUS
 62
     7
100
AcDbPoint
 10
317.0
 20
48.00000000000046
 30
0.0
  0
POINT
  5
6F
330
1E
100
AcDbEntity
  8
DEFPOINTS
  6
CONTINUOUS
 62
     7
100
AcDbPoint
 10
917.9697359999991
 20
48.00000000000029
 30
0.0
  0
LINE
  5
70
330
1E
100
AcDbEntity
  8
NOTE
  6
CONTINUOUS
 62
     4
100
AcDbLine
 10
793.9180641405308
 20
-124.2954091161218
 30
0.0
 11
1200.17825914053
 21
-124.2954091161218
 31
0.0
  0
TEXT
  5
71
330
1E
100
AcDbEntity
  8
NOTE
  6
CONTINUOUS
 62
     4
100
AcDbText
 10
886.2168032481459
 20
-316.0328948648152
 30
0.0
 40
64.0
  1
AH 4-14X30
 41
0.9
100
AcDbText
  0
LINE
  5
72
330
1E
100
AcDbEntity
  8
NOTE
  6
CONTINUOUS
 62
     4
100
AcDbLine
 10
812.6112642538029
 20
-342.9336507099942
 30
0.0
 11
1478.871459253801
 21
-342.9336507099942
 31
0.0
  0
TEXT
  5
73
330
1E
100
AcDbEntity
  8
NOTE
  6
CONTINUOUS
 62
     4
100
AcDbText
 10
876.4593058601256
 20
-93.49371771894311
 30
0.0
 40
64.0
  1
%%c200
 41
0.9
100
AcDbText
  0
LINE
  5
74
330
1E
100
AcDbEntity
  8
SIZE
  6
CONTINUOUS
 62
    30
100
AcDbLine
 10
287.0
 20
108.0
 30
0.0
 11
286.9999999999998
 21
-626.4517531121867
 31
0.0
  0
LINE
  5
75
330
1E
100
AcDbEntity
  8
SIZE
  6
CONTINUOUS
 62
    30
100
AcDbLine
 10
335.0
 20
-20.0
 30
0.0
 11
334.9999999999998
 21
-626.4517531121867
 31
0.0
  0
LINE
  5
76
330
1E
100
AcDbEntity
  8
SIZE
  6
CONTINUOUS
 62
    30
100
AcDbLine
 10
276.9999999999999
 20
-596.4517531121868
 30
0.0
 11
266.9999999999999
 21
-596.4517531121868
 31
0.0
  0
LINE
  5
77
330
1E
100
AcDbEntity
  8
SIZE
  6
CONTINUOUS
 62
    30
100
AcDbLine
 10
344.9999999999998
 20
-596.4517531121868
 30
0.0
 11
488.2571428571428
 21
-596.4517531121868
 31
0.0
  0
LINE
  5
78
330
1E
100
AcDbEntity
  8
SIZE
  6
CONTINUOUS
 62
    30
100
AcDbLine
 10
286.9999999999998
 20
-596.4517531121868
 30
0.0
 11
334.9999999999998
 21
-596.4517531121868
 31
0.0
  0
CIRCLE
  5
79
330
1E
100
AcDbEntity
  8
SIZE
  6
CONTINUOUS
 62
    30
100
AcDbCircle
 10
286.9999999999998
 20
-596.4517531121868
 30
0.0
 40
5.0
  0
LINE
  5
7A
330
1E
100
AcDbEntity
  8
SIZE
  6
CONTINUOUS
 62
    30
100
AcDbLine
 10
281.9999999999998
 20
-596.4517531121868
 30
0.0
 11
276.9999999999999
 21
-596.4517531121868
 31
0.0
  0
CIRCLE
  5
7B
330
1E
100
AcDbEntity
  8
SIZE
  6
CONTINUOUS
 62
    30
100
AcDbCircle
 10
334.9999999999998
 20
-596.4517531121868
 30
0.0
 40
5.0
  0
LINE
  5
7C
330
1E
100
AcDbEntity
  8
SIZE
  6
CONTINUOUS
 62
    30
100
AcDbLine
 10
339.9999999999999
 20
-596.4517531121868
 30
0.0
 11
344.9999999999998
 21
-596.4517531121868
 31
0.0
  0
TEXT
  5
7D
330
1E
100
AcDbEntity
  8
SIZE
  6
CONTINUOUS
 62
    30
100
AcDbText
 10
374.9999999999999
 20
-576.4517531121868
 30
0.0
 40
64.0
  1
48
 41
0.9
 72
     1
 11
421.6285714285714
 21
-576.4517531121868
 31
0.0
100
AcDbText
  0
POINT
  5
7E
330
1E
100
AcDbEntity
  8
DEFPOINTS
  6
CONTINUOUS
 62
     7
100
AcDbPoint
 10
287.0
 20
128.0
 30
0.0
  0
POINT
  5
7F
330
1E
100
AcDbEntity
  8
DEFPOINTS
  6
CONTINUOUS
 62
     7
100
AcDbPoint
 10
335.0
 20
0.0
 30
0.0
  0
POINT
  5
80
330
1E
100
AcDbEntity
  8
DEFPOINTS
  6
CONTINUOUS
 62
     7
100
AcDbPoint
 10
334.9999999999998
 20
-596.4517531121868
 30
0.0
  0
LINE
  5
81
330
1E
100
AcDbEntity
  8
SIZE
  6
CONTINUOUS
 62
    30
100
AcDbLine
 10
-287.0
 20
108.0
 30
0.0
 11
-287.0
 21
-626.4517531121867
 31
0.0
  0
LINE
  5
82
330
1E
100
AcDbEntity
  8
SIZE
  6
CONTINUOUS
 62
    30
100
AcDbLine
 10
-335.0
 20
-20.0
 30
0.0
 11
-335.0
 21
-626.4517531121867
 31
0.0
  0
LINE
  5
83
330
1E
100
AcDbEntity
  8
SIZE
  6
CONTINUOUS
 62
    30
100
AcDbLine
 10
-277.0
 20
-596.4517531121868
 30
0.0
 11
-267.0
 21
-596.4517531121868
 31
0.0
  0
LINE
  5
84
330
1E
100
AcDbEntity
  8
SIZE
  6
CONTINUOUS
 62
    30
100
AcDbLine
 10
-345.0
 20
-596.4517531121868
 30
0.0
 11
-488.2571428571428
 21
-596.4517531121868
 31
0.0
  0
LINE
  5
85
330
1E
100
AcDbEntity
  8
SIZE
  6
CONTINUOUS
 62
    30
100
AcDbLine
 10
-287.0
 20
-596.4517531121868
 30
0.0
 11
-335.0
 21
-596.4517531121868
 31
0.0
  0
CIRCLE
  5
86
330
1E
100
AcDbEntity
  8
SIZE
  6
CONTINUOUS
 62
    30
100
AcDbCircle
 10
-287.0
 20
-596.4517531121868
 30
0.0
 40
5.0
  0
LINE
  5
87
330
1E
100
AcDbEntity
  8
SIZE
  6
CONTINUOUS
 62
    30
100
AcDbLine
 10
-282.0
 20
-596.4517531121868
 30
0.0
 11
-277.0
 21
-596.4517531121868
 31
0.0
  0
CIRCLE
  5
88
330
1E
100
AcDbEntity
  8
SIZE
  6
CONTINUOUS
 62
    30
100
AcDbCircle
 10
-335.0
 20
-596.4517531121868
 30
0.0
 40
5.0
  0
LINE
  5
89
330
1E
100
AcDbEntity
  8
SIZE
  6
CONTINUOUS
 62
    30
100
AcDbLine
 10
-340.0
 20
-596.4517531121868
 30
0.0
 11
-345.0
 21
-596.4517531121868
 31
0.0
  0
TEXT
  5
8A
330
1E
100
AcDbEntity
  8
SIZE
  6
CONTINUOUS
 62
    30
100
AcDbText
 10
-468.2571428571429
 20
-576.4517531121868
 30
0.0
 40
64.0
  1
48
 41
0.9
 72
     1
 11
-421.6285714285715
 21
-576.4517531121868
 31
0.0
100
AcDbText
  0
POINT
  5
8B
330
1E
100
AcDbEntity
  8
DEFPOINTS
  6
CONTINUOUS
 62
     7
100
AcDbPoint
 10
-287.0
 20
128.0
 30
0.0
  0
POINT
  5
8C
330
1E
100
AcDbEntity
  8
DEFPOINTS
  6
CONTINUOUS
 62
     7
100
AcDbPoint
 10
-335.0
 20
0.0
 30
0.0
  0
POINT
  5
8D
330
1E
100
AcDbEntity
  8
DEFPOINTS
  6
CONTINUOUS
 62
     7
100
AcDbPoint
 10
-335.0
 20
-596.4517531121868
 30
0.0
  0
LINE
  5
8E
330
1E
100
AcDbEntity
  8
SIZE
  6
CONTINUOUS
 62
    30
100
AcDbLine
 10
287.0
 20
108.0
 30
0.0
 11
286.9999999999998
 21
-626.4517531121867
 31
0.0
  0
LINE
  5
8F
330
1E
100
AcDbEntity
  8
SIZE
  6
CONTINUOUS
 62
    30
100
AcDbLine
 10
-287.0
 20
108.0
 30
0.0
 11
-287.0
 21
-626.4517531121867
 31
0.0
  0
LINE
  5
90
330
1E
100
AcDbEntity
  8
SIZE
  6
CONTINUOUS
 62
    30
100
AcDbLine
 10
276.9999999999999
 20
-596.4517531121868
 30
0.0
 11
-277.0
 21
-596.4517531121868
 31
0.0
  0
CIRCLE
  5
91
330
1E
100
AcDbEntity
  8
SIZE
  6
CONTINUOUS
 62
    30
100
AcDbCircle
 10
286.9999999999998
 20
-596.4517531121868
 30
0.0
 40
5.0
  0
LINE
  5
92
330
1E
100
AcDbEntity
  8
SIZE
  6
CONTINUOUS
 62
    30
100
AcDbLine
 10
281.9999999999998
 20
-596.4517531121868
 30
0.0
 11
276.9999999999999
 21
-596.4517531121868
 31
0.0
  0
CIRCLE
  5
93
330
1E
100
AcDbEntity
  8
SIZE
  6
CONTINUOUS
 62
    30
100
AcDbCircle
 10
-287.0
 20
-596.4517531121868
 30
0.0
 40
5.0
  0
LINE
  5
94
330
1E
100
AcDbEntity
  8
SIZE
  6
CONTINUOUS
 62
    30
100
AcDbLine
 10
-282.0
 20
-596.4517531121868
 30
0.0
 11
-277.0
 21
-596.4517531121868
 31
0.0
  0
TEXT
  5
95
330
1E
100
AcDbEntity
  8
SIZE
  6
CONTINUOUS
 62
    30
100
AcDbText
 10
-75.42857142857148
 20
-576.4517531121868
 30
0.0
 40
64.0
  1
574
 41
0.9
 72
     1
 11
-0.0000000000000568
 21
-576.4517531121868
 31
0.0
100
AcDbText
  0
POINT
  5
96
330
1E
100
AcDbEntity
  8
DEFPOINTS
  6
CONTINUOUS
 62
     7
100
AcDbPoint
 10
287.0
 20
128.0
 30
0.0
  0
POINT
  5
97
330
1E
100
AcDbEntity
  8
DEFPOINTS
  6
CONTINUOUS
 62
     7
100
AcDbPoint
 10
-287.0
 20
128.0
 30
0.0
  0
POINT
  5
98
330
1E
100
AcDbEntity
  8
DEFPOINTS
  6
CONTINUOUS
 62
     7
100
AcDbPoint
 10
-287.0
 20
-596.4517531121868
 30
0.0
  0
TEXT
  5
99
330
1E
100
AcDbEntity
  8
NOTE
  6
CONTINUOUS
 62
     4
100
AcDbText
 10
-375.8556387627559
 20
-726.9687669260934
 30
0.0
 40
64.0
  1
(Lifting bolt pitch)
 41
0.9
100
AcDbText
  0
LINE
  5
9A
330
1E
100
AcDbEntity
  8
SIZE
  6
CONTINUOUS
 62
    30
100
AcDbLine
 10
-323.0
 20
338.0
 30
0.0
 11
-629.4499953371866
 21
338.0
 31
0.0
  0
LINE
  5
9B
330
1E
100
AcDbEntity
  8
SIZE
  6
CONTINUOUS
 62
    30
100
AcDbLine
 10
-343.0
 20
193.0000000000007
 30
0.0
 11
-629.4499953371869
 21
193.0000000000009
 31
0.0
  0
LINE
  5
9C
330
1E
100
AcDbEntity
  8
SIZE
  6
CONTINUOUS
 62
    30
100
AcDbLine
 10
-599.4499953371867
 20
348.0
 30
0.0
 11
-599.4499953371867
 21
358.0
 31
0.0
  0
LINE
  5
9D
330
1E
100
AcDbEntity
  8
SIZE
  6
CONTINUOUS
 62
    30
100
AcDbLine
 10
-599.4499953371869
 20
183.0000000000009
 30
0.0
 11
-599.4499953371869
 21
173.000000000001
 31
0.0
  0
LINE
  5
9E
330
1E
100
AcDbEntity
  8
SIZE
  6
CONTINUOUS
 62
    30
100
AcDbLine
 10
-599.4499953371867
 20
338.0
 30
0.0
 11
-599.4499953371869
 21
193.0000000000009
 31
0.0
  0
CIRCLE
  5
9F
330
1E
100
AcDbEntity
  8
SIZE
  6
CONTINUOUS
 62
    30
100
AcDbCircle
 10
-599.4499953371867
 20
338.0
 30
0.0
 40
5.0
  0
LINE
  5
A0
330
1E
100
AcDbEntity
  8
SIZE
  6
CONTINUOUS
 62
    30
100
AcDbLine
 10
-599.4499953371867
 20
343.0
 30
0.0
 11
-599.4499953371867
 21
348.0
 31
0.0
  0
CIRCLE
  5
A1
330
1E
100
AcDbEntity
  8
SIZE
  6
CONTINUOUS
 62
    30
100
AcDbCircle
 10
-599.4499953371869
 20
193.0000000000009
 30
0.0
 40
5.0
  0
LINE
  5
A2
330
1E
100
AcDbEntity
  8
SIZE
  6
CONTINUOUS
 62
    30
100
AcDbLine
 10
-599.4499953371869
 20
188.0000000000009
 30
0.0
 11
-599.4499953371869
 21
183.0000000000009
 31
0.0
  0
TEXT
  5
A3
330
1E
100
AcDbEntity
  8
SIZE
  6
CONTINUOUS
 62
    30
100
AcDbText
 10
-619.4499953371868
 20
196.9285714285718
 30
0.0
 40
64.0
  1
145
 50
90.0
 41
0.9
 72
     1
 11
-619.4499953371868
 21
265.5000000000004
 31
0.0
100
AcDbText
  0
POINT
  5
A4
330
1E
100
AcDbEntity
  8
DEFPOINTS
  6
CONTINUOUS
 62
     7
100
AcDbPoint
 10
-303.0
 20
338.0
 30
0.0
  0
POINT
  5
A5
330
1E
100
AcDbEntity
  8
DEFPOINTS
  6
CONTINUOUS
 62
     7
100
AcDbPoint
 10
-323.0
 20
193.0000000000007
 30
0.0
  0
POINT
  5
A6
330
1E
100
AcDbEntity
  8
DEFPOINTS
  6
CONTINUOUS
 62
     7
100
AcDbPoint
 10
-599.4499953371869
 20
193.0000000000009
 30
0.0
  0
LINE
  5
A7
330
1E
100
AcDbEntity
  8
NOTE
  6
CONTINUOUS
 62
     4
100
AcDbLine
 10
-303.0
 20
193.0000000000007
 30
0.0
 11
-726.7301471927676
 21
-80.8697966711543
 31
0.0
  0
LINE
  5
A8
330
1E
100
AcDbEntity
  8
SIZE
  6
CONTINUOUS
 62
    30
100
AcDbLine
 10
-335.0
 20
-20.0
 30
0.0
 11
-335.0
 21
-208.7615646318786
 31
0.0
  0
LINE
  5
A9
330
1E
100
AcDbEntity
  8
SIZE
  6
CONTINUOUS
 62
    30
100
AcDbLine
 10
-355.0
 20
-20.0
 30
0.0
 11
-355.0
 21
-208.7615646318786
 31
0.0
  0
LINE
  5
AA
330
1E
100
AcDbEntity
  8
SIZE
  6
CONTINUOUS
 62
    30
100
AcDbLine
 10
-325.0
 20
-178.7615646318785
 30
0.0
 11
-315.0
 21
-178.7615646318785
 31
0.0
  0
LINE
  5
AB
330
1E
100
AcDbEntity
  8
SIZE
  6
CONTINUOUS
 62
    30
100
AcDbLine
 10
-365.0
 20
-178.7615646318785
 30
0.0
 11
-508.2571428571427
 21
-178.7615646318785
 31
0.0
  0
LINE
  5
AC
330
1E
100
AcDbEntity
  8
SIZE
  6
CONTINUOUS
 62
    30
100
AcDbLine
 10
-335.0
 20
-178.7615646318785
 30
0.0
 11
-355.0
 21
-178.7615646318785
 31
0.0
  0
CIRCLE
  5
AD
330
1E
100
AcDbEntity
  8
SIZE
  6
CONTINUOUS
 62
    30
100
AcDbCircle
 10
-335.0
 20
-178.7615646318785
 30
0.0
 40
5.0
  0
LINE
  5
AE
330
1E
100
AcDbEntity
  8
SIZE
  6
CONTINUOUS
 62
    30
100
AcDbLine
 10
-330.0
 20
-178.7615646318785
 30
0.0
 11
-325.0
 21
-178.7615646318785
 31
0.0
  0
CIRCLE
  5
AF
330
1E
100
AcDbEntity
  8
SIZE
  6
CONTINUOUS
 62
    30
100
AcDbCircle
 10
-355.0
 20
-178.7615646318785
 30
0.0
 40
5.0
  0
LINE
  5
B0
330
1E
100
AcDbEntity
  8
SIZE
  6
CONTINUOUS
 62
    30
100
AcDbLine
 10
-360.0
 20
-178.7615646318785
 30
0.0
 11
-365.0
 21
-178.7615646318785
 31
0.0
  0
TEXT
  5
B1
330
1E
100
AcDbEntity
  8
SIZE
  6
CONTINUOUS
 62
    30
100
AcDbText
 10
-488.2571428571428
 20
-158.7615646318786
 30
0.0
 40
64.0
  1
20
 41
0.9
 72
     1
 11
-441.6285714285713
 21
-158.7615646318786
 31
0.0
100
AcDbText
  0
POINT
  5
B2
330
1E
100
AcDbEntity
  8
DEFPOINTS
  6
CONTINUOUS
 62
     7
100
AcDbPoint
 10
-335.0
 20
0.0
 30
0.0
  0
POINT
  5
B3
330
1E
100
AcDbEntity
  8
DEFPOINTS
  6
CONTINUOUS
 62
     7
100
AcDbPoint
 10
-355.0
 20
0.0
 30
0.0
  0
POINT
  5
B4
330
1E
100
AcDbEntity
  8
DEFPOINTS
  6
CONTINUOUS
 62
     7
100
AcDbPoint
 10
-355.0
 20
-178.7615646318785
 30
0.0
  0
LINE
  5
B5
330
1E
100
AcDbEntity
  8
DETAIL
  6
CONTINUOUS
 62
     5
100
AcDbLine
 10
303.0
 20
48.0
 30
0.0
 11
303.0
 21
106.0000000000004
 31
0.0
  0
LINE
  5
B6
330
1E
100
AcDbEntity
  8
DETAIL
  6
CONTINUOUS
 62
     5
100
AcDbLine
 10
-303.0
 20
48.0
 30
0.0
 11
-303.0
 21
106.0
 31
0.0
  0
LINE
  5
B7
330
1E
100
AcDbEntity
  8
SIZE
  6
CONTINUOUS
 62
    30
100
AcDbLine
 10
323.0
 20
338.0000000000003
 30
0.0
 11
570.3454380000002
 21
338.0000000000003
 31
0.0
  0
LINE
  5
B8
330
1E
100
AcDbEntity
  8
SIZE
  6
CONTINUOUS
 62
    30
100
AcDbLine
 10
343.0
 20
193.0000000000007
 30
0.0
 11
570.3454380000001
 21
193.0000000000007
 31
0.0
  0
LINE
  5
B9
330
1E
100
AcDbEntity
  8
SIZE
  6
CONTINUOUS
 62
    30
100
AcDbLine
 10
540.3454380000002
 20
348.0000000000002
 30
0.0
 11
540.3454380000002
 21
358.0000000000004
 31
0.0
  0
LINE
  5
BA
330
1E
100
AcDbEntity
  8
SIZE
  6
CONTINUOUS
 62
    30
100
AcDbLine
 10
540.3454380000002
 20
183.0000000000008
 30
0.0
 11
540.3454380000002
 21
173.0000000000007
 31
0.0
  0
LINE
  5
BB
330
1E
100
AcDbEntity
  8
SIZE
  6
CONTINUOUS
 62
    30
100
AcDbLine
 10
540.3454380000002
 20
338.0000000000003
 30
0.0
 11
540.3454380000002
 21
193.0000000000007
 31
0.0
  0
CIRCLE
  5
BC
330
1E
100
AcDbEntity
  8
SIZE
  6
CONTINUOUS
 62
    30
100
AcDbCircle
 10
540.3454380000002
 20
338.0000000000003
 30
0.0
 40
5.0
  0
LINE
  5
BD
330
1E
100
AcDbEntity
  8
SIZE
  6
CONTINUOUS
 62
    30
100
AcDbLine
 10
540.3454380000002
 20
343.0000000000002
 30
0.0
 11
540.3454380000002
 21
348.0000000000002
 31
0.0
  0
CIRCLE
  5
BE
330
1E
100
AcDbEntity
  8
SIZE
  6
CONTINUOUS
 62
    30
100
AcDbCircle
 10
540.3454380000002
 20
193.0000000000007
 30
0.0
 40
5.0
  0
LINE
  5
BF
330
1E
100
AcDbEntity
  8
SIZE
  6
CONTINUOUS
 62
    30
100
AcDbLine
 10
540.3454380000002
 20
188.0000000000007
 30
0.0
 11
540.3454380000002
 21
183.0000000000008
 31
0.0
  0
TEXT
  5
C0
330
1E
100
AcDbEntity
  8
SIZE
  6
CONTINUOUS
 62
    30
100
AcDbText
 10
520.3454380000001
 20
196.928571428572
 30
0.0
 40
64.0
  1
145
 50
90.0
 41
0.9
 72
     1
 11
520.3454380000001
 21
265.5000000000006
 31
0.0
100
AcDbText
  0
POINT
  5
C1
330
1E
100
AcDbEntity
  8
DEFPOINTS
  6
CONTINUOUS
 62
     7
100
AcDbPoint
 10
303.0
 20
338.0000000000003
 30
0.0
  0
POINT
  5
C2
330
1E
100
AcDbEntity
  8
DEFPOINTS
  6
CONTINUOUS
 62
     7
100
AcDbPoint
 10
323.0
 20
193.0000000000007
 30
0.0
  0
POINT
  5
C3
330
1E
100
AcDbEntity
  8
DEFPOINTS
  6
CONTINUOUS
 62
     7
100
AcDbPoint
 10
540.3454380000002
 20
193.0000000000007
 30
0.0
  0
LINE
  5
C4
330
1E
100
AcDbEntity
  8
BASIS
  6
DASHDOT
 62
     6
100
AcDbLine
 10
0.0
 20
-65.75558099999989
 30
0.0
 11
0.0
 21
414.2172749999999
 31
0.0
  0
TEXT
  5
C5
330
1E
100
AcDbEntity
  8
NOTE
  6
CONTINUOUS
 62
     4
100
AcDbText
 10
-351.5611145776511
 20
-292.1555987204923
 30
0.0
 40
64.0
  1
(Ceiling opening)
 41
0.9
100
AcDbText
  0
LINE
  5
C6
330
1E
100
AcDbEntity
  8
SIZE
  6
CONTINUOUS
 62
    30
100
AcDbLine
 10
355.0
 20
-20.0
 30
0.0
 11
354.9999999999998
 21
-500.2444529999998
 31
0.0
  0
LINE
  5
C7
330
1E
100
AcDbEntity
  8
SIZE
  6
CONTINUOUS
 62
    30
100
AcDbLine
 10
-355.0
 20
-20.0
 30
0.0
 11
-355.0
 21
-500.2444529999998
 31
0.0
  0
LINE
  5
C8
330
1E
100
AcDbEntity
  8
SIZE
  6
CONTINUOUS
 62
    30
100
AcDbLine
 10
344.9999999999998
 20
-470.2444529999998
 30
0.0
 11
-345.0
 21
-470.2444529999998
 31
0.0
  0
CIRCLE
  5
C9
330
1E
100
AcDbEntity
  8
SIZE
  6
CONTINUOUS
 62
    30
100
AcDbCircle
 10
354.9999999999998
 20
-470.2444529999998
 30
0.0
 40
5.0
  0
LINE
  5
CA
330
1E
100
AcDbEntity
  8
SIZE
  6
CONTINUOUS
 62
    30
100
AcDbLine
 10
349.9999999999998
 20
-470.2444529999998
 30
0.0
 11
344.9999999999998
 21
-470.2444529999998
 31
0.0
  0
CIRCLE
  5
CB
330
1E
100
AcDbEntity
  8
SIZE
  6
CONTINUOUS
 62
    30
100
AcDbCircle
 10
-355.0
 20
-470.2444529999998
 30
0.0
 40
5.0
  0
LINE
  5
CC
330
1E
100
AcDbEntity
  8
SIZE
  6
CONTINUOUS
 62
    30
100
AcDbLine
 10
-350.0
 20
-470.2444529999998
 30
0.0
 11
-345.0
 21
-470.2444529999998
 31
0.0
  0
TEXT
  5
CD
330
1E
100
AcDbEntity
  8
SIZE
  6
CONTINUOUS
 62
    30
100
AcDbText
 10
-68.57142857142862
 20
-450.2444529999997
 30
0.0
 40
64.0
  1
710
 41
0.9
 72
     1
 11
-0.0000000000000568
 21
-450.2444529999997
 31
0.0
100
AcDbText
  0
POINT
  5
CE
330
1E
100
AcDbEntity
  8
DEFPOINTS
  6
CONTINUOUS
 62
     7
100
AcDbPoint
 10
355.0
 20
0.0
 30
0.0
  0
POINT
  5
CF
330
1E
100
AcDbEntity
  8
DEFPOINTS
  6
CONTINUOUS
 62
     7
100
AcDbPoint
 10
-355.0
 20
0.0
 30
0.0
  0
POINT
  5
D0
330
1E
100
AcDbEntity
  8
DEFPOINTS
  6
CONTINUOUS
 62
     7
100
AcDbPoint
 10
-355.0
 20
-470.2444529999998
 30
0.0
  0
LINE
  5
D1
330
1E
100
AcDbEntity
  8
SIZE
  6
CONTINUOUS
 62
    30
100
AcDbLine
 10
335.0
 20
-20.0
 30
0.0
 11
335.0
 21
-208.7615646318786
 31
0.0
  0
LINE
  5
D2
330
1E
100
AcDbEntity
  8
SIZE
  6
CONTINUOUS
 62
    30
100
AcDbLine
 10
-335.0
 20
-20.0
 30
0.0
 11
-335.0
 21
-208.7615646318786
 31
0.0
  0
LINE
  5
D3
330
1E
100
AcDbEntity
  8
SIZE
  6
CONTINUOUS
 62
    30
100
AcDbLine
 10
325.0
 20
-178.7615646318785
 30
0.0
 11
-325.0
 21
-178.7615646318785
 31
0.0
  0
CIRCLE
  5
D4
330
1E
100
AcDbEntity
  8
SIZE
  6
CONTINUOUS
 62
    30
100
AcDbCircle
 10
335.0
 20
-178.7615646318785
 30
0.0
 40
5.0
  0
LINE
  5
D5
330
1E
100
AcDbEntity
  8
SIZE
  6
CONTINUOUS
 62
    30
100
AcDbLine
 10
330.0
 20
-178.7615646318785
 30
0.0
 11
325.0
 21
-178.7615646318785
 31
0.0
  0
CIRCLE
  5
D6
330
1E
100
AcDbEntity
  8
SIZE
  6
CONTINUOUS
 62
    30
100
AcDbCircle
 10
-335.0
 20
-178.7615646318785
 30
0.0
 40
5.0
  0
LINE
  5
D7
330
1E
100
AcDbEntity
  8
SIZE
  6
CONTINUOUS
 62
    30
100
AcDbLine
 10
-330.0
 20
-178.7615646318785
 30
0.0
 11
-325.0
 21
-178.7615646318785
 31
0.0
  0
TEXT
  5
D8
330
1E
100
AcDbEntity
  8
SIZE
  6
CONTINUOUS
 62
    30
100
AcDbText
 10
-76.26066811256797
 20
-158.7615646318786
 30
0.0
 40
64.0
  1
670
 41
0.9
 72
     1
 11
-2.20352525542512
 21
-158.7615646318786
 31
0.0
100
AcDbText
  0
POINT
  5
D9
330
1E
100
AcDbEntity
  8
DEFPOINTS
  6
CONTINUOUS
 62
     7
100
AcDbPoint
 10
335.0
 20
0.0
 30
0.0
  0
POINT
  5
DA
330
1E
100
AcDbEntity
  8
DEFPOINTS
  6
CONTINUOUS
 62
     7
100
AcDbPoint
 10
-335.0
 20
0.0
 30
0.0
  0
POINT
  5
DB
330
1E
100
AcDbEntity
  8
DEFPOINTS
  6
CONTINUOUS
 62
     7
100
AcDbPoint
 10
-335.0
 20
-178.7615646318785
 30
0.0
  0
LINE
  5
DC
330
1E
100
AcDbEntity
  8
DETAIL
  6
CONTINUOUS
 62
     5
100
AcDbLine
 10
-317.0
 20
45.0
 30
0.0
 11
317.0
 21
45.00000000000045
 31
0.0
  0
LINE
  5
DD
330
1E
100
AcDbEntity
  8
DETAIL
  6
CONTINUOUS
 62
     5
100
AcDbLine
 10
-317.0
 20
48.0
 30
0.0
 11
317.0
 21
48.00000000000046
 31
0.0
  0
LINE
  5
DE
330
1E
100
AcDbEntity
  8
DETAIL
  6
CONTINUOUS
 62
     5
100
AcDbLine
 10
-348.0
 20
-8.0
 30
0.0
 11
348.0
 21
-8.0
 31
0.0
  0
LINE
  5
DF
330
1E
100
AcDbEntity
  8
DETAIL
  6
CONTINUOUS
 62
     5
100
AcDbLine
 10
-355.0
 20
0.0
 30
0.0
 11
355.0
 21
0.0
 31
0.0
  0
LINE
  5
E0
330
1E
100
AcDbEntity
  8
SIZE
  6
CONTINUOUS
 62
    30
100
AcDbLine
 10
335.0
 20
-20.0
 30
0.0
 11
335.0
 21
-208.7615646318786
 31
0.0
  0
LINE
  5
E1
330
1E
100
AcDbEntity
  8
SIZE
  6
CONTINUOUS
 62
    30
100
AcDbLine
 10
355.0
 20
-20.0
 30
0.0
 11
355.0
 21
-208.7615646318786
 31
0.0
  0
LINE
  5
E2
330
1E
100
AcDbEntity
  8
SIZE
  6
CONTINUOUS
 62
    30
100
AcDbLine
 10
325.0
 20
-178.7615646318785
 30
0.0
 11
315.0
 21
-178.7615646318785
 31
0.0
  0
LINE
  5
E3
330
1E
100
AcDbEntity
  8
SIZE
  6
CONTINUOUS
 62
    30
100
AcDbLine
 10
365.0
 20
-178.7615646318785
 30
0.0
 11
508.2571428571427
 21
-178.7615646318785
 31
0.0
  0
LINE
  5
E4
330
1E
100
AcDbEntity
  8
SIZE
  6
CONTINUOUS
 62
    30
100
AcDbLine
 10
335.0
 20
-178.7615646318785
 30
0.0
 11
355.0
 21
-178.7615646318785
 31
0.0
  0
CIRCLE
  5
E5
330
1E
100
AcDbEntity
  8
SIZE
  6
CONTINUOUS
 62
    30
100
AcDbCircle
 10
335.0
 20
-178.7615646318785
 30
0.0
 40
5.0
  0
LINE
  5
E6
330
1E
100
AcDbEntity
  8
SIZE
  6
CONTINUOUS
 62
    30
100
AcDbLine
 10
330.0
 20
-178.7615646318785
 30
0.0
 11
325.0
 21
-178.7615646318785
 31
0.0
  0
CIRCLE
  5
E7
330
1E
100
AcDbEntity
  8
SIZE
  6
CONTINUOUS
 62
    30
100
AcDbCircle
 10
355.0
 20
-178.7615646318785
 30
0.0
 40
5.0
  0
LINE
  5
E8
330
1E
100
AcDbEntity
  8
SIZE
  6
CONTINUOUS
 62
    30
100
AcDbLine
 10
360.0
 20
-178.7615646318785
 30
0.0
 11
365.0
 21
-178.7615646318785
 31
0.0
  0
TEXT
  5
E9
330
1E
100
AcDbEntity
  8
SIZE
  6
CONTINUOUS
 62
    30
100
AcDbText
 10
394.9999999999999
 20
-158.7615646318786
 30
0.0
 40
64.0
  1
20
 41
0.9
 72
     1
 11
441.6285714285713
 21
-158.7615646318786
 31
0.0
100
AcDbText
  0
POINT
  5
EA
330
1E
100
AcDbEntity
  8
DEFPOINTS
  6
CONTINUOUS
 62
     7
100
AcDbPoint
 10
335.0
 20
0.0
 30
0.0
  0
POINT
  5
EB
330
1E
100
AcDbEntity
  8
DEFPOINTS
  6
CONTINUOUS
 62
     7
100
AcDbPoint
 10
355.0
 20
0.0
 30
0.0
  0
POINT
  5
EC
330
1E
100
AcDbEntity
  8
DEFPOINTS
  6
CONTINUOUS
 62
     7
100
AcDbPoint
 10
355.0
 20
-178.7615646318785
 30
0.0
  0
LINE
  5
ED
330
1E
100
AcDbEntity
  8
SERVICESPACE
  6
DASHDOT
 62
     2
100
AcDbLine
 10
335.0
 20
0.0
 30
0.0
 11
395.0
 21
0.0
 31
0.0
  0
LINE
  5
EE
330
1E
100
AcDbEntity
  8
SERVICESPACE
  6
DASHDOT
 62
     2
100
AcDbLine
 10
335.0
 20
20.0
 30
0.0
 11
395.0
 21
20.0
 31
0.0
  0
LINE
  5
EF
330
1E
100
AcDbEntity
  8
DETAIL
  6
CONTINUOUS
 62
     5
100
AcDbLine
 10
317.0
 20
-0.0000000000004547
 30
0.0
 11
317.0
 21
48.0
 31
0.0
  0
LINE
  5
F0
330
1E
100
AcDbEntity
  8
SERVICESPACE
  6
DASHDOT
 62
     2
100
AcDbLine
 10
335.0
 20
20.0
 30
0.0
 11
335.0
 21
0.0
 31
0.0
  0
LINE
  5
F1
330
1E
100
AcDbEntity
  8
DETAIL
  6
CONTINUOUS
 62
     5
100
AcDbLine
 10
355.0
 20
-1.0
 30
0.0
 11
355.0
 21
0.0
 31
0.0
  0
ARC
  5
F2
330
1E
100
AcDbEntity
  8
DETAIL
  6
CONTINUOUS
 62
     5
100
AcDbCircle
 10
348.0
 20
-1.0
 30
0.0
 40
7.0
100
AcDbArc
 50
270.0
 51
0.000000000000007
  0
LWPOLYLINE
  5
F3
330
1E
100
AcDbEntity
  8
NOTE
  6
CONTINUOUS
 62
     4
100
AcDbPolyline
 90
        3
 70
     0
 43
0.0
 10
322.4478949481436
 20
127.4676835772178
 10
287.0
 20
146.0
 10
308.4326193979503
 20
112.2265952851899
  0
LINE
  5
F8
330
1E
100
AcDbEntity
  8
DETAIL
  6
CONTINUOUS
 62
     5
100
AcDbLine
 10
262.0
 20
106.0
 30
0.0
 11
262.0
 21
146.0
 31
0.0
  0
LINE
  5
F9
330
1E
100
AcDbEntity
  8
DETAIL
  6
CONTINUOUS
 62
     5
100
AcDbLine
 10
312.0
 20
106.0
 30
0.0
 11
312.0
 21
146.0
 31
0.0
  0
LINE
  5
FA
330
1E
100
AcDbEntity
  8
DETAIL
  6
CONTINUOUS
 62
     5
100
AcDbLine
 10
312.0
 20
106.0
 30
0.0
 11
262.0
 21
106.0
 31
0.0
  0
CIRCLE
  5
FB
330
1E
100
AcDbEntity
  8
FIX
  6
CONTINUOUS
 62
    11
100
AcDbCircle
 10
287.0
 20
146.0
 30
0.0
 40
20.0
  0
LINE
  5
FC
330
1E
100
AcDbEntity
  8
NOTE
  6
CONTINUOUS
 62
     4
100
AcDbLine
 10
307.0
 20
146.0
 30
0.0
 11
267.0
 21
146.0
 31
0.0
  0
LINE
  5
FD
330
1E
100
AcDbEntity
  8
NOTE
  6
CONTINUOUS
 62
     4
100
AcDbLine
 10
287.0
 20
126.0
 30
0.0
 11
287.0
 21
166.0
 31
0.0
  0
LINE
  5
FE
330
1E
100
AcDbEntity
  8
DETAIL
  6
CONTINUOUS
 62
     5
100
AcDbLine
 10
312.0
 20
146.0
 30
0.0
 11
262.0
 21
146.0
 31
0.0
  0
LINE
  5
FF
330
1E
100
AcDbEntity
  8
NOTE
  6
CONTINUOUS
 62
     4
100
AcDbLine
 10
307.0
 20
146.0
 30
0.0
 11
267.0
 21
146.0
 31
0.0
  0
LINE
  5
100
330
1E
100
AcDbEntity
  8
DETAIL
  6
CONTINUOUS
 62
     5
100
AcDbLine
 10
312.0
 20
143.6999999999998
 30
0.0
 11
262.0
 21
143.6999999999998
 31
0.0
  0
LWPOLYLINE
  5
101
330
1E
100
AcDbEntity
  8
NOTE
  6
CONTINUOUS
 62
     4
100
AcDbPolyline
 90
        3
 70
     0
 43
0.0
 10
341.0366813706987
 20
180.6221609412863
 10
302.9999999999982
 20
193.0000000000013
 10
329.7518117580238
 20
163.2621364561109
  0
LINE
  5
106
330
1E
100
AcDbEntity
  8
NOTE
  6
CONTINUOUS
 62
     4
100
AcDbLine
 10
283.0
 20
193.0000000000007
 30
0.0
 11
323.0
 21
193.0000000000007
 31
0.0
  0
LINE
  5
107
330
1E
100
AcDbEntity
  8
NOTE
  6
CONTINUOUS
 62
     4
100
AcDbLine
 10
303.0
 20
173.0000000000009
 30
0.0
 11
303.0
 21
213.0000000000008
 31
0.0
  0
POINT
  5
108
330
1E
100
AcDbEntity
  8
ARRANGE
  6
CONTINUOUS
 62
     1
100
AcDbPoint
 10
0.0
 20
0.0
 30
0.0
  0
CIRCLE
  5
109
330
1E
100
AcDbEntity
  8
ARRANGE
  6
CONTINUOUS
 62
     1
100
AcDbCircle
 10
0.0
 20
0.0
 30
0.0
 40
40.0
  0
LINE
  5
10A
330
1E
100
AcDbEntity
  8
DETAIL
  6
CONTINUOUS
 62
     5
100
AcDbLine
 10
-317.0
 20
0.0
 30
0.0
 11
-317.0
 21
48.0
 31
0.0
  0
LINE
  5
10B
330
1E
100
AcDbEntity
  8
SERVICESPACE
  6
DASHDOT
 62
     2
100
AcDbLine
 10
-395.0
 20
0.0
 30
0.0
 11
-335.0
 21
0.0
 31
0.0
  0
LINE
  5
10C
330
1E
100
AcDbEntity
  8
SERVICESPACE
  6
DASHDOT
 62
     2
100
AcDbLine
 10
-395.0
 20
20.0
 30
0.0
 11
-335.0
 21
20.0
 31
0.0
  0
LINE
  5
10D
330
1E
100
AcDbEntity
  8
SERVICESPACE
  6
DASHDOT
 62
     2
100
AcDbLine
 10
-335.0
 20
20.0
 30
0.0
 11
-335.0
 21
0.0
 31
0.0
  0
LINE
  5
10E
330
1E
100
AcDbEntity
  8
DETAIL
  6
CONTINUOUS
 62
     5
100
AcDbLine
 10
-355.0
 20
-1.0
 30
0.0
 11
-355.0
 21
0.0
 31
0.0
  0
ARC
  5
10F
330
1E
100
AcDbEntity
  8
DETAIL
  6
CONTINUOUS
 62
     5
100
AcDbCircle
 10
-348.0
 20
-1.0
 30
0.0
 40
7.0
100
AcDbArc
 50
180.0
 51
270.0
  0
LINE
  5
110
330
1E
100
AcDbEntity
  8
DETAIL
  6
CONTINUOUS
 62
     5
100
AcDbLine
 10
-262.0
 20
106.0
 30
0.0
 11
-312.0
 21
106.0
 31
0.0
  0
CIRCLE
  5
111
330
1E
100
AcDbEntity
  8
FIX
  6
CONTINUOUS
 62
    11
100
AcDbCircle
 10
-287.0
 20
146.0
 30
0.0
 40
20.0
  0
LINE
  5
112
330
1E
100
AcDbEntity
  8
NOTE
  6
CONTINUOUS
 62
     4
100
AcDbLine
 10
-267.0
 20
146.0
 30
0.0
 11
-307.0
 21
146.0
 31
0.0
  0
LINE
  5
113
330
1E
100
AcDbEntity
  8
DETAIL
  6
CONTINUOUS
 62
     5
100
AcDbLine
 10
-262.0
 20
146.0
 30
0.0
 11
-312.0
 21
146.0
 31
0.0
  0
LINE
  5
114
330
1E
100
AcDbEntity
  8
NOTE
  6
CONTINUOUS
 62
     4
100
AcDbLine
 10
-267.0
 20
146.0
 30
0.0
 11
-307.0
 21
146.0
 31
0.0
  0
LINE
  5
115
330
1E
100
AcDbEntity
  8
NOTE
  6
CONTINUOUS
 62
     4
100
AcDbLine
 10
-267.0
 20
146.0
 30
0.0
 11
-307.0
 21
146.0
 31
0.0
  0
LINE
  5
116
330
1E
100
AcDbEntity
  8
DETAIL
  6
CONTINUOUS
 62
     5
100
AcDbLine
 10
-262.0
 20
143.6999999999998
 30
0.0
 11
-312.0
 21
143.6999999999998
 31
0.0
  0
LINE
  5
117
330
1E
100
AcDbEntity
  8
DETAIL
  6
CONTINUOUS
 62
     5
100
AcDbLine
 10
-262.0
 20
106.0
 30
0.0
 11
-262.0
 21
146.0
 31
0.0
  0
LINE
  5
118
330
1E
100
AcDbEntity
  8
DETAIL
  6
CONTINUOUS
 62
     5
100
AcDbLine
 10
-312.0
 20
106.0
 30
0.0
 11
-312.0
 21
146.0
 31
0.0
  0
LINE
  5
119
330
1E
100
AcDbEntity
  8
NOTE
  6
CONTINUOUS
 62
     4
100
AcDbLine
 10
-287.0
 20
126.0
 30
0.0
 11
-287.0
 21
166.0
 31
0.0
  0
LWPOLYLINE
  5
11A
330
1E
100
AcDbEntity
  8
NOTE
  6
CONTINUOUS
 62
     4
100
AcDbPolyline
 90
        3
 70
     0
 43
0.0
 10
-341.0366813706987
 20
180.6221609412863
 10
-302.9999999999982
 20
193.0000000000013
 10
-329.7518117580238
 20
163.2621364561109
  0
LINE
  5
11F
330
1E
100
AcDbEntity
  8
NOTE
  6
CONTINUOUS
 62
     4
100
AcDbLine
 10
-303.0
 20
173.0000000000009
 30
0.0
 11
-303.0
 21
213.0000000000008
 31
0.0
  0
LINE
  5
120
330
1E
100
AcDbEntity
  8
NOTE
  6
CONTINUOUS
 62
     4
100
AcDbLine
 10
-283.0
 20
193.0000000000007
 30
0.0
 11
-323.0
 21
193.0000000000007
 31
0.0
  0
LINE
  5
121
330
1E
100
AcDbEntity
  8
DETAIL
  6
CONTINUOUS
 62
     5
100
AcDbLine
 10
-303.0
 20
338.0
 30
0.0
 11
303.0
 21
338.0
 31
0.0
  0
TEXT
  5
122
330
1E
100
AcDbEntity
  8
NOTE
  6
CONTINUOUS
 62
     4
100
AcDbText
 10
-1014.31581424121
 20
-50.99356074268598
 30
0.0
 40
64.0
  1
%%c200
 41
0.9
100
AcDbText
  0
LINE
  5
123
330
1E
100
AcDbEntity
  8
NOTE
  6
CONTINUOUS
 62
     4
100
AcDbLine
 10
-726.7301471927676
 20
-80.8697966711543
 30
0.0
 11
-1132.990342192765
 21
-80.8697966711543
 31
0.0
  0
LINE
  5
124
330
1E
100
AcDbEntity
  8
DETAIL
  6
CONTINUOUS
 62
     5
100
AcDbLine
 10
-303.0
 20
146.0
 30
0.0
 11
-303.0
 21
338.0
 31
0.0
  0
LINE
  5
125
330
1E
100
AcDbEntity
  8
DETAIL
  6
CONTINUOUS
 62
     5
100
AcDbLine
 10
303.0
 20
146.0000000000003
 30
0.0
 11
303.0
 21
337.9999999999995
 31
0.0
  0
LINE
  5
126
330
1E
100
AcDbEntity
  8
NOTE
  6
CONTINUOUS
 62
     4
100
AcDbLine
 10
-20.0
 20
157.0000000000013
 30
0.0
 11
20.0
 21
157.0000000000013
 31
0.0
  0
LINE
  5
127
330
1E
100
AcDbEntity
  8
NOTE
  6
CONTINUOUS
 62
     4
100
AcDbLine
 10
0.0
 20
137.0000000000013
 30
0.0
 11
0.0
 21
177.0000000000013
 31
0.0
  0
CIRCLE
  5
128
330
1E
100
AcDbEntity
  8
DETAIL
  6
CONTINUOUS
 62
     5
100
AcDbCircle
 10
0.0
 20
157.0000000000013
 30
0.0
 40
75.0
  0
CIRCLE
  5
129
330
1E
100
AcDbEntity
  8
DETAIL
  6
CONTINUOUS
 62
     5
100
AcDbCircle
 10
0.0
 20
157.0000000000013
 30
0.0
 40
86.0
  0
LINE
  5
12A
330
1E
100
AcDbEntity
  8
SIZE
  6
CONTINUOUS
 62
    30
100
AcDbLine
 10
303.0
 20
357.9999999999994
 30
0.0
 11
303.0
 21
937.9423570571841
 31
0.0
  0
LINE
  5
12B
330
1E
100
AcDbEntity
  8
SIZE
  6
CONTINUOUS
 62
    30
100
AcDbLine
 10
0.0000000000000012
 20
197.0000000000013
 30
0.0
 11
0.0000000000000466
 21
937.9423570571841
 31
0.0
  0
LINE
  5
12C
330
1E
100
AcDbEntity
  8
SIZE
  6
CONTINUOUS
 62
    30
100
AcDbLine
 10
293.0
 20
907.9423570571838
 30
0.0
 11
10.00000000000003
 21
907.9423570571838
 31
0.0
  0
CIRCLE
  5
12D
330
1E
100
AcDbEntity
  8
SIZE
  6
CONTINUOUS
 62
    30
100
AcDbCircle
 10
303.0
 20
907.9423570571838
 30
0.0
 40
5.0
  0
LINE
  5
12E
330
1E
100
AcDbEntity
  8
SIZE
  6
CONTINUOUS
 62
    30
100
AcDbLine
 10
298.0
 20
907.9423570571838
 30
0.0
 11
293.0
 21
907.9423570571838
 31
0.0
  0
CIRCLE
  5
12F
330
1E
100
AcDbEntity
  8
SIZE
  6
CONTINUOUS
 62
    30
100
AcDbCircle
 10
0.0000000000000448
 20
907.9423570571838
 30
0.0
 40
5.0
  0
LINE
  5
130
330
1E
100
AcDbEntity
  8
SIZE
  6
CONTINUOUS
 62
    30
100
AcDbLine
 10
5.000000000000044
 20
907.9423570571838
 30
0.0
 11
10.00000000000004
 21
907.9423570571838
 31
0.0
  0
TEXT
  5
131
330
1E
100
AcDbEntity
  8
SIZE
  6
CONTINUOUS
 62
    30
100
AcDbText
 10
79.29897034970146
 20
927.9423570571839
 30
0.0
 40
64.0
  1
303
 41
0.9
 72
     1
 11
153.3561132068443
 21
927.9423570571839
 31
0.0
100
AcDbText
  0
POINT
  5
132
330
1E
100
AcDbEntity
  8
DEFPOINTS
  6
CONTINUOUS
 62
     7
100
AcDbPoint
 10
303.0
 20
337.9999999999995
 30
0.0
  0
POINT
  5
133
330
1E
100
AcDbEntity
  8
DEFPOINTS
  6
CONTINUOUS
 62
     7
100
AcDbPoint
 10
0.0
 20
177.0000000000013
 30
0.0
  0
POINT
  5
134
330
1E
100
AcDbEntity
  8
DEFPOINTS
  6
CONTINUOUS
 62
     7
100
AcDbPoint
 10
0.0000000000000448
 20
907.9423570571838
 30
0.0
  0
LINE
  5
135
330
1E
100
AcDbEntity
  8
SIZE
  6
CONTINUOUS
 62
    30
100
AcDbLine
 10
-323.0
 20
338.0
 30
0.0
 11
-764.1526539964886
 21
338.0
 31
0.0
  0
LINE
  5
136
330
1E
100
AcDbEntity
  8
SIZE
  6
CONTINUOUS
 62
    30
100
AcDbLine
 10
-40.0
 20
157.0000000000013
 30
0.0
 11
-764.1526539964886
 21
157.0000000000016
 31
0.0
  0
LINE
  5
137
330
1E
100
AcDbEntity
  8
SIZE
  6
CONTINUOUS
 62
    30
100
AcDbLine
 10
-734.1526539964887
 20
328.0
 30
0.0
 11
-734.1526539964887
 21
167.0000000000015
 31
0.0
  0
CIRCLE
  5
138
330
1E
100
AcDbEntity
  8
SIZE
  6
CONTINUOUS
 62
    30
100
AcDbCircle
 10
-734.1526539964887
 20
338.0
 30
0.0
 40
5.0
  0
LINE
  5
139
330
1E
100
AcDbEntity
  8
SIZE
  6
CONTINUOUS
 62
    30
100
AcDbLine
 10
-734.1526539964887
 20
333.0
 30
0.0
 11
-734.1526539964887
 21
328.0
 31
0.0
  0
CIRCLE
  5
13A
330
1E
100
AcDbEntity
  8
SIZE
  6
CONTINUOUS
 62
    30
100
AcDbCircle
 10
-734.1526539964887
 20
157.0000000000016
 30
0.0
 40
5.0
  0
LINE
  5
13B
330
1E
100
AcDbEntity
  8
SIZE
  6
CONTINUOUS
 62
    30
100
AcDbLine
 10
-734.1526539964887
 20
162.0000000000015
 30
0.0
 11
-734.1526539964887
 21
167.0000000000015
 31
0.0
  0
TEXT
  5
13C
330
1E
100
AcDbEntity
  8
SIZE
  6
CONTINUOUS
 62
    30
100
AcDbText
 10
-754.1526539964889
 20
191.2714285714293
 30
0.0
 40
64.0
  1
181
 50
90.0
 41
0.9
 72
     1
 11
-754.1526539964889
 21
247.5000000000007
 31
0.0
100
AcDbText
  0
POINT
  5
13D
330
1E
100
AcDbEntity
  8
DEFPOINTS
  6
CONTINUOUS
 62
     7
100
AcDbPoint
 10
-303.0
 20
338.0
 30
0.0
  0
POINT
  5
13E
330
1E
100
AcDbEntity
  8
DEFPOINTS
  6
CONTINUOUS
 62
     7
100
AcDbPoint
 10
-20.0
 20
157.0000000000013
 30
0.0
  0
POINT
  5
13F
330
1E
100
AcDbEntity
  8
DEFPOINTS
  6
CONTINUOUS
 62
     7
100
AcDbPoint
 10
-734.1526539964887
 20
157.0000000000016
 30
0.0
  0
LINE
  5
140
330
1E
100
AcDbEntity
  8
BASIS
  6
DASHDOT
 62
     6
100
AcDbLine
 10
-151.999999999998
 20
157.0000000000013
 30
0.0
 11
152.0000000000018
 21
157.0000000000013
 31
0.0
  0
CIRCLE
  5
141
330
1E
100
AcDbEntity
  8
DETAIL
  6
CONTINUOUS
 62
     5
100
AcDbCircle
 10
0.0
 20
243.0000000000013
 30
0.0
 40
1.45
  0
LINE
  5
142
330
1E
100
AcDbEntity
  8
NOTE
  6
CONTINUOUS
 62
     4
100
AcDbLine
 10
0.0
 20
223.0000000000013
 30
0.0
 11
0.0
 21
263.0000000000013
 31
0.0
  0
LINE
  5
143
330
1E
100
AcDbEntity
  8
NOTE
  6
CONTINUOUS
 62
     4
100
AcDbLine
 10
-20.0
 20
243.0000000000013
 30
0.0
 11
20.0
 21
243.0000000000013
 31
0.0
  0
LINE
  5
144
330
1E
100
AcDbEntity
  8
NOTE
  6
CONTINUOUS
 62
     4
100
AcDbLine
 10
-86.0
 20
137.0000000000013
 30
0.0
 11
-86.0
 21
177.0000000000013
 31
0.0
  0
LINE
  5
145
330
1E
100
AcDbEntity
  8
NOTE
  6
CONTINUOUS
 62
     4
100
AcDbLine
 10
-106.0
 20
157.0000000000013
 30
0.0
 11
-66.0
 21
157.0000000000013
 31
0.0
  0
CIRCLE
  5
146
330
1E
100
AcDbEntity
  8
DETAIL
  6
CONTINUOUS
 62
     5
100
AcDbCircle
 10
-86.0
 20
157.0000000000013
 30
0.0
 40
1.45
  0
LINE
  5
147
330
1E
100
AcDbEntity
  8
NOTE
  6
CONTINUOUS
 62
     4
100
AcDbLine
 10
0.0
 20
51.00000000000136
 30
0.0
 11
0.0
 21
91.00000000000134
 31
0.0
  0
LINE
  5
148
330
1E
100
AcDbEntity
  8
NOTE
  6
CONTINUOUS
 62
     4
100
AcDbLine
 10
-20.0
 20
71.00000000000136
 30
0.0
 11
20.0
 21
71.00000000000136
 31
0.0
  0
CIRCLE
  5
149
330
1E
100
AcDbEntity
  8
DETAIL
  6
CONTINUOUS
 62
     5
100
AcDbCircle
 10
0.0
 20
71.00000000000136
 30
0.0
 40
1.45
  0
LINE
  5
14A
330
1E
100
AcDbEntity
  8
NOTE
  6
CONTINUOUS
 62
     4
100
AcDbLine
 10
86.0
 20
137.0000000000013
 30
0.0
 11
86.0
 21
177.0000000000013
 31
0.0
  0
LINE
  5
14B
330
1E
100
AcDbEntity
  8
NOTE
  6
CONTINUOUS
 62
     4
100
AcDbLine
 10
66.0
 20
157.0000000000013
 30
0.0
 11
106.0
 21
157.0000000000013
 31
0.0
  0
CIRCLE
  5
14C
330
1E
100
AcDbEntity
  8
DETAIL
  6
CONTINUOUS
 62
     5
100
AcDbCircle
 10
86.0
 20
157.0000000000013
 30
0.0
 40
1.45
  0
LWPOLYLINE
  5
14D
330
1E
100
AcDbEntity
  8
NOTE
  6
CONTINUOUS
 62
     4
100
AcDbPolyline
 90
        3
 70
     0
 43
0.0
 10
-68.49836107581541
 20
257.0745778357435
 10
-60.79998373790477
 20
217.8223805640244
 10
-87.09307272589102
 20
247.9665921349941
  0
LINE
  5
152
330
1E
100
AcDbEntity
  8
NOTE
  6
CONTINUOUS
 62
     4
100
AcDbLine
 10
-60.79998373790477
 20
217.8223805640244
 30
0.0
 11
-187.4422773147871
 21
476.5605233570903
 31
0.0
  0
TEXT
  5
153
330
1E
100
AcDbEntity
  8
NOTE
  6
CONTINUOUS
 62
     4
100
AcDbText
 10
-470.0256174280712
 20
501.0974265039776
 30
0.0
 40
64.0
  1
%%c172
 41
0.9
100
AcDbText
  0
LINE
  5
154
330
1E
100
AcDbEntity
  8
NOTE
  6
CONTINUOUS
 62
     4
100
AcDbLine
 10
-553.7024723147859
 20
476.5605233571005
 30
0.0
 11
-187.4422773147871
 21
476.5605233570903
 31
0.0
  0
LINE
  5
155
330
1E
100
AcDbEntity
  8
NOTE
  6
CONTINUOUS
 62
     4
100
AcDbLine
 10
24.05855584534582
 20
228.0365109689132
 30
0.0
 11
273.7958483567453
 21
738.2654512821069
 31
0.0
  0
LWPOLYLINE
  5
156
330
1E
100
AcDbEntity
  8
NOTE
  6
CONTINUOUS
 62
     4
100
AcDbPolyline
 90
        3
 70
     0
 43
0.0
 10
31.75693318325647
 20
267.2887082406318
 10
24.05855584534582
 20
228.0365109689132
 10
50.35164483332845
 20
258.180722539882
  0
TEXT
  5
15B
330
1E
100
AcDbEntity
  8
NOTE
  6
CONTINUOUS
 62
     4
100
AcDbText
 10
353.4077598986005
 20
762.8023544289917
 30
0.0
 40
64.0
  1
%%c150
 41
0.9
100
AcDbText
  0
LINE
  5
15C
330
1E
100
AcDbEntity
  8
NOTE
  6
CONTINUOUS
 62
     4
100
AcDbLine
 10
640.0560433567443
 20
738.2654512821069
 30
0.0
 11
273.7958483567453
 21
738.2654512821069
 31
0.0
  0
LINE
  5
15D
330
1E
100
AcDbEntity
  8
NOTE
  6
CONTINUOUS
 62
     4
100
AcDbLine
 10
86.0
 20
157.0000000000013
 30
0.0
 11
351.1988769271956
 21
542.6916649716348
 31
0.0
  0
LWPOLYLINE
  5
15E
330
1E
100
AcDbEntity
  8
NOTE
  6
CONTINUOUS
 62
     4
100
AcDbPolyline
 90
        3
 70
     0
 43
0.0
 10
99.37104920442472
 20
194.699005921478
 10
86.0
 20
157.0000000000013
 10
116.429171292897
 20
182.9627724673768
  0
TEXT
  5
163
330
1E
100
AcDbEntity
  8
NOTE
  6
CONTINUOUS
 62
     4
100
AcDbText
 10
395.9108127933432
 20
563.7665457316082
 30
0.0
 40
64.0
  1
4-%%c2.9
 41
0.9
100
AcDbText
  0
LINE
  5
164
330
1E
100
AcDbEntity
  8
NOTE
  6
CONTINUOUS
 62
     4
100
AcDbLine
 10
351.1988769271956
 20
542.6916649716348
 30
0.0
 11
717.4590719271947
 21
542.6916649716249
 31
0.0
  0
LINE
  5
165
330
1E
100
AcDbEntity
  8
SIZE
  6
CONTINUOUS
 62
    30
100
AcDbLine
 10
172.0000000000018
 20
157.0000000000013
 30
0.0
 11
199.9999999999971
 21
157.0000000000013
 31
0.0
  0
ARC
  5
166
330
1E
100
AcDbEntity
  8
SIZE
  6
CONTINUOUS
 62
    30
100
AcDbCircle
 10
0.0
 20
157.0000000000013
 30
0.0
 40
169.9999999999971
100
AcDbArc
 50
3.37082608044534
 51
86.62917391955453
  0
CIRCLE
  5
167
330
1E
100
AcDbEntity
  8
SIZE
  6
CONTINUOUS
 62
    30
100
AcDbCircle
 10
169.9999999999971
 20
157.0000000000013
 30
0.0
 40
5.0
  0
LINE
  5
168
330
1E
100
AcDbEntity
  8
SIZE
  6
CONTINUOUS
 62
    30
100
AcDbLine
 10
169.8529411764676
 20
161.9978369023443
 30
0.0
 11
169.7058823529382
 21
166.9956738046874
 31
0.0
  0
CIRCLE
  5
169
330
1E
100
AcDbEntity
  8
SIZE
  6
CONTINUOUS
 62
    30
100
AcDbCircle
 10
0.0000000000002274
 20
326.9999999999985
 30
0.0
 40
5.0
  0
LINE
  5
16A
330
1E
100
AcDbEntity
  8
SIZE
  6
CONTINUOUS
 62
    30
100
AcDbLine
 10
4.997836902343293
 20
326.852941176469
 30
0.0
 11
9.99567380468636
 21
326.7058823529396
 31
0.0
  0
TEXT
  5
16B
330
1E
100
AcDbEntity
  8
SIZE
  6
CONTINUOUS
 62
    30
100
AcDbText
 10
90.12985063512438
 20
335.5707262157608
 30
0.0
 40
64.0
  1
90°
 50
315.0
 41
0.9
 72
     1
 11
134.3502884254419
 21
291.3502884254432
 31
0.0
100
AcDbText
  0
POINT
  5
16C
330
1E
100
AcDbEntity
  8
DEFPOINTS
  6
CONTINUOUS
 62
     7
100
AcDbPoint
 10
147.224318643352
 20
241.9999999999998
 30
0.0
  0
POINT
  5
16D
330
1E
100
AcDbEntity
  8
DEFPOINTS
  6
CONTINUOUS
 62
     7
100
AcDbPoint
 10
0.0
 20
-65.75558099999989
 30
0.0
  0
POINT
  5
16E
330
1E
100
AcDbEntity
  8
DEFPOINTS
  6
CONTINUOUS
 62
     7
100
AcDbPoint
 10
-151.999999999998
 20
157.0000000000013
 30
0.0
  0
POINT
  5
16F
330
1E
100
AcDbEntity
  8
DEFPOINTS
  6
CONTINUOUS
 62
     7
100
AcDbPoint
 10
152.0000000000018
 20
157.0000000000013
 30
0.0
  0
POINT
  5
170
330
1E
100
AcDbEntity
  8
DEFPOINTS
  6
CONTINUOUS
 62
     7
100
AcDbPoint
 10
0.0
 20
414.2172749999999
 30
0.0
  0
LINE
  5
171
330
1E
100
AcDbEntity
  8
SIZE
  6
CONTINUOUS
 62
    30
100
AcDbLine
 10
172.0000000000017
 20
157.0000000000012
 30
0.0
 11
200.0000000000035
 21
157.0000000000012
 31
0.0
  0
ARC
  5
172
330
1E
100
AcDbEntity
  8
SIZE
  6
CONTINUOUS
 62
    30
100
AcDbCircle
 10
0.0
 20
157.0000000000013
 30
0.0
 40
170.0000000000034
100
AcDbArc
 50
273.3708260804452
 51
356.6291739195548
  0
CIRCLE
  5
173
330
1E
100
AcDbEntity
  8
SIZE
  6
CONTINUOUS
 62
    30
100
AcDbCircle
 10
-0.0000000000000369
 20
-13.00000000000222
 30
0.0
 40
5.0
  0
LINE
  5
174
330
1E
100
AcDbEntity
  8
SIZE
  6
CONTINUOUS
 62
    30
100
AcDbLine
 10
4.99783690234303
 20
-12.85294117647282
 30
0.0
 11
9.995673804686095
 21
-12.70588235294341
 31
0.0
  0
CIRCLE
  5
175
330
1E
100
AcDbEntity
  8
SIZE
  6
CONTINUOUS
 62
    30
100
AcDbCircle
 10
170.0000000000034
 20
157.0000000000012
 30
0.0
 40
5.0
  0
LINE
  5
176
330
1E
100
AcDbEntity
  8
SIZE
  6
CONTINUOUS
 62
    30
100
AcDbLine
 10
169.8529411764741
 20
152.0021630976581
 30
0.0
 11
169.7058823529446
 21
147.004326195315
 31
0.0
  0
TEXT
  5
177
330
1E
100
AcDbEntity
  8
SIZE
  6
CONTINUOUS
 62
    30
100
AcDbText
 10
128.2798967946455
 20
57.22444029176988
 30
0.0
 40
64.0
  1
90°
 50
74.75632709114598
 41
0.9
 72
     1
 11
144.7224546161694
 21
117.5612990848868
 31
0.0
100
AcDbText
  0
POINT
  5
178
330
1E
100
AcDbEntity
  8
DEFPOINTS
  6
CONTINUOUS
 62
     7
100
AcDbPoint
 10
85.00000000000172
 20
9.775681356643644
 30
0.0
  0
POINT
  5
179
330
1E
100
AcDbEntity
  8
DEFPOINTS
  6
CONTINUOUS
 62
     7
100
AcDbPoint
 10
-151.999999999998
 20
157.0000000000013
 30
0.0
  0
POINT
  5
17A
330
1E
100
AcDbEntity
  8
DEFPOINTS
  6
CONTINUOUS
 62
     7
100
AcDbPoint
 10
0.0
 20
-65.75558099999989
 30
0.0
  0
POINT
  5
17B
330
1E
100
AcDbEntity
  8
DEFPOINTS
  6
CONTINUOUS
 62
     7
100
AcDbPoint
 10
0.0
 20
414.2172749999999
 30
0.0
  0
POINT
  5
17C
330
1E
100
AcDbEntity
  8
DEFPOINTS
  6
CONTINUOUS
 62
     7
100
AcDbPoint
 10
152.0000000000018
 20
157.0000000000013
 30
0.0
  0
LINE
  5
17D
330
1E
100
AcDbEntity
  8
OUTLINE
  6
CONTINUOUS
 62
     3
100
AcDbLine
 10
302.9999999999982
 20
146.0000000000003
 30
0.0
 11
302.9999999999982
 21
337.9999999999995
 31
0.0
  0
LINE
  5
17E
330
1E
100
AcDbEntity
  8
OUTLINE
  6
CONTINUOUS
 62
     3
100
AcDbLine
 10
-303.0000000000018
 20
146.0000000000003
 30
0.0
 11
-303.0000000000018
 21
338.0000000000003
 31
0.0
  0
LINE
  5
17F
330
1E
100
AcDbEntity
  8
OUTLINE
  6
CONTINUOUS
 62
     3
100
AcDbLine
 10
-355.0000000000018
 20
0.0000000000004547
 30
0.0
 11
354.9999999999982
 21
0.0000000000004547
 31
0.0
  0
LINE
  5
180
330
1E
100
AcDbEntity
  8
OUTLINE
  6
CONTINUOUS
 62
     3
100
AcDbLine
 10
-348.0000000000018
 20
-7.999999999999545
 30
0.0
 11
347.999999999998
 21
-7.999999999999545
 31
0.0
  0
LINE
  5
181
330
1E
100
AcDbEntity
  8
OUTLINE
  6
CONTINUOUS
 62
     3
100
AcDbLine
 10
-317.0000000000018
 20
48.00000000000046
 30
0.0
 11
316.999999999998
 21
48.00000000000046
 31
0.0
  0
LINE
  5
182
330
1E
100
AcDbEntity
  8
OUTLINE
  6
CONTINUOUS
 62
     3
100
AcDbLine
 10
-262.0000000000018
 20
143.6999999999993
 30
0.0
 11
-312.0000000000018
 21
143.6999999999993
 31
0.0
  0
LINE
  5
183
330
1E
100
AcDbEntity
  8
OUTLINE
  6
CONTINUOUS
 62
     3
100
AcDbLine
 10
-262.0000000000018
 20
146.0000000000003
 30
0.0
 11
-312.0000000000018
 21
146.0000000000003
 31
0.0
  0
LINE
  5
184
330
1E
100
AcDbEntity
  8
OUTLINE
  6
CONTINUOUS
 62
     3
100
AcDbLine
 10
-262.0000000000018
 20
106.0000000000004
 30
0.0
 11
-312.0000000000018
 21
106.0000000000004
 31
0.0
  0
LINE
  5
185
330
1E
100
AcDbEntity
  8
OUTLINE
  6
CONTINUOUS
 62
     3
100
AcDbLine
 10
-317.0000000000018
 20
0.0000000000004547
 30
0.0
 11
-317.0000000000018
 21
48.00000000000046
 31
0.0
  0
ARC
  5
186
330
1E
100
AcDbEntity
  8
OUTLINE
  6
CONTINUOUS
 62
     3
100
AcDbCircle
 10
-348.0000000000018
 20
-0.9999999999995452
 30
0.0
 40
7.0
100
AcDbArc
 50
180.0
 51
270.0
  0
LINE
  5
187
330
1E
100
AcDbEntity
  8
OUTLINE
  6
CONTINUOUS
 62
     3
100
AcDbLine
 10
-355.0000000000018
 20
-0.9999999999995452
 30
0.0
 11
-355.0000000000018
 21
0.0000000000004547
 31
0.0
  0
LINE
  5
188
330
1E
100
AcDbEntity
  8
OUTLINE
  6
CONTINUOUS
 62
     3
100
AcDbLine
 10
-312.0000000000018
 20
106.0000000000004
 30
0.0
 11
-312.0000000000018
 21
146.0000000000003
 31
0.0
  0
LINE
  5
189
330
1E
100
AcDbEntity
  8
OUTLINE
  6
CONTINUOUS
 62
     3
100
AcDbLine
 10
-303.0000000000018
 20
48.00000000000046
 30
0.0
 11
-303.0000000000018
 21
106.0000000000004
 31
0.0
  0
LINE
  5
18A
330
1E
100
AcDbEntity
  8
OUTLINE
  6
CONTINUOUS
 62
     3
100
AcDbLine
 10
-262.0000000000018
 20
106.0000000000004
 30
0.0
 11
-262.0000000000018
 21
146.0000000000003
 31
0.0
  0
LINE
  5
18B
330
1E
100
AcDbEntity
  8
OUTLINE
  6
CONTINUOUS
 62
     3
100
AcDbLine
 10
316.999999999998
 20
-0.0000000000004547
 30
0.0
 11
316.999999999998
 21
48.00000000000046
 31
0.0
  0
ARC
  5
18C
330
1E
100
AcDbEntity
  8
OUTLINE
  6
CONTINUOUS
 62
     3
100
AcDbCircle
 10
347.999999999998
 20
-0.9999999999995452
 30
0.0
 40
7.0
100
AcDbArc
 50
270.0
 51
0.0
  0
LINE
  5
18D
330
1E
100
AcDbEntity
  8
OUTLINE
  6
CONTINUOUS
 62
     3
100
AcDbLine
 10
354.9999999999982
 20
-0.9999999999995452
 30
0.0
 11
354.9999999999982
 21
0.0000000000004547
 31
0.0
  0
LINE
  5
18E
330
1E
100
AcDbEntity
  8
OUTLINE
  6
CONTINUOUS
 62
     3
100
AcDbLine
 10
311.999999999998
 20
106.0000000000004
 30
0.0
 11
311.999999999998
 21
146.0000000000003
 31
0.0
  0
LINE
  5
18F
330
1E
100
AcDbEntity
  8
OUTLINE
  6
CONTINUOUS
 62
     3
100
AcDbLine
 10
261.999999999998
 20
106.0000000000004
 30
0.0
 11
261.999999999998
 21
146.0000000000003
 31
0.0
  0
LINE
  5
190
330
1E
100
AcDbEntity
  8
OUTLINE
  6
CONTINUOUS
 62
     3
100
AcDbLine
 10
302.9999999999982
 20
48.00000000000046
 30
0.0
 11
302.9999999999982
 21
106.0000000000004
 31
0.0
  0
LINE
  5
191
330
1E
100
AcDbEntity
  8
OUTLINE
  6
CONTINUOUS
 62
     3
100
AcDbLine
 10
311.999999999998
 20
143.6999999999993
 30
0.0
 11
261.999999999998
 21
143.6999999999993
 31
0.0
  0
LINE
  5
192
330
1E
100
AcDbEntity
  8
OUTLINE
  6
CONTINUOUS
 62
     3
100
AcDbLine
 10
311.999999999998
 20
146.0000000000003
 30
0.0
 11
261.999999999998
 21
146.0000000000003
 31
0.0
  0
LINE
  5
193
330
1E
100
AcDbEntity
  8
OUTLINE
  6
CONTINUOUS
 62
     3
100
AcDbLine
 10
311.999999999998
 20
106.0000000000004
 30
0.0
 11
261.999999999998
 21
106.0000000000004
 31
0.0
  0
LINE
  5
194
330
1E
100
AcDbEntity
  8
OUTLINE
  6
CONTINUOUS
 62
     3
100
AcDbLine
 10
-303.0000000000018
 20
338.0000000000003
 30
0.0
 11
302.9999999999982
 21
338.0000000000003
 31
0.0
  0
ENDSEC
  0
SECTION
  2
OBJECTS
  0
DICTIONARY
  5
C
330
0
100
AcDbDictionary
  3
ACAD_GROUP
350
D
  3
ACAD_LAYOUT
350
19
  3
ACAD_MLINESTYLE
350
16
  3
ACAD_PLOTSETTINGS
350
18
  3
ACAD_PLOTSTYLENAME
350
E
  3
ACDBHEADERROUNDTRIPXREC
350
197
  0
DICTIONARY
  5
1BA
330
1E
100
AcDbDictionary
280
     1
  3
ACAD_LAYOUTSELFREF
360
1BB
  0
DICTIONARY
  5
1B8
330
1A
100
AcDbDictionary
280
     1
  3
ACAD_LAYOUTSELFREF
360
1B9
  0
DICTIONARY
  5
D
102
{ACAD_REACTORS
330
C
102
}
330
C
100
AcDbDictionary
  0
DICTIONARY
  5
19
102
{ACAD_REACTORS
330
C
102
}
330
C
100
AcDbDictionary
  0
DICTIONARY
  5
16
102
{ACAD_REACTORS
330
C
102
}
330
C
100
AcDbDictionary
  3
STANDARD
350
17
  0
DICTIONARY
  5
18
102
{ACAD_REACTORS
330
C
102
}
330
C
100
AcDbDictionary
  0
ACDBDICTIONARYWDFLT
  5
E
102
{ACAD_REACTORS
330
C
102
}
330
C
100
AcDbDictionary
281
     1
  3
Normal
350
F
100
AcDbDictionaryWithDefault
340
F
  0
DICTIONARY
  5
197
102
{ACAD_REACTORS
330
C
102
}
330
C
100
AcDbDictionary
  3
CEPSNTYPE
350
1A1
  3
DIMSTYLEDATA
350
1A5
  3
FINGERPRINTGUID
350
1A2
  3
HYPERLINKBASE
350
19A
  3
INSUNITS
350
1A0
  3
LAYOUTDICT
350
19C
  3
LWETCUNION
350
19F
  3
PLOTSETDICT
350
19D
  3
PLOTSTYLNAMDICT
350
19E
  3
PSVPSCALE
350
1A4
  3
PUCSBASE
350
1A8
  3
PUCSORGBACK
350
1AE
  3
PUCSORGBOTTOM
350
1AA
  3
PUCSORGFRONT
350
1AD
  3
PUCSORGLEFT
350
1AB
  3
PUCSORGRIGHT
350
1AC
  3
PUCSORGTOP
350
1A9
  3
PUCSORTHOREF
350
1A6
  3
PUCSORTHOVIEW
350
1A7
  3
STYLESHEET
350
19B
  3
TSTACKALIGN
350
198
  3
TSTACKSIZE
350
199
  3
UCSBASE
350
1B1
  3
UCSORGBACK
350
1B7
  3
UCSORGBOTTOM
350
1B3
  3
UCSORGFRONT
350
1B6
  3
UCSORGLEFT
350
1B4
  3
UCSORGRIGHT
350
1B5
  3
UCSORGTOP
350
1B2
  3
UCSORTHOREF
350
1AF
  3
UCSORTHOVIEW
350
1B0
  3
VERSIONGUID
350
1A3
  0
XRECORD
  5
1BB
102
{ACAD_REACTORS
330
1BA
102
}
330
1BA
100
AcDbXrecord
340
1E
  0
XRECORD
  5
1B9
102
{ACAD_REACTORS
330
1B8
102
}
330
1B8
100
AcDbXrecord
340
1A
  0
MLINESTYLE
  5
17
102
{ACAD_REACTORS
330
16
102
}
330
16
100
AcDbMlineStyle
  2
STANDARD
 70
     0
  3

 62
   256
 51
90.0
 52
90.0
 71
     2
 49
0.5
 62
   256
  6
BYLAYER
 49
-0.5
 62
   256
  6
BYLAYER
  0
ACDBPLACEHOLDER
  5
F
102
{ACAD_REACTORS
330
E
102
}
330
E
100
AcDbPlaceHolder
280
     0
  0
XRECORD
  5
1A1
102
{ACAD_REACTORS
330
197
102
}
330
197
100
AcDbXrecord
 90
        0
  0
XRECORD
  5
1A5
102
{ACAD_REACTORS
330
197
102
}
330
197
100
AcDbXrecord
1000
DSTYLE
1002
{
1070
   341
340
39
1070
   342
340
39
1070
   343
340
39
1070
   344
340
34
1002
}
  0
XRECORD
  5
1A2
102
{ACAD_REACTORS
330
197
102
}
330
197
100
AcDbXrecord
  1
{39543C4F-5B73-4B96-BCDE-7F21E96C936D}
  0
XRECORD
  5
19A
102
{ACAD_REACTORS
330
197
102
}
330
197
100
AcDbXrecord
  1

  0
XRECORD
  5
1A0
102
{ACAD_REACTORS
330
197
102
}
330
197
100
AcDbXrecord
 90
        0
  0
XRECORD
  5
19C
102
{ACAD_REACTORS
330
197
102
}
330
197
100
AcDbXrecord
340
19
  0
XRECORD
  5
19F
102
{ACAD_REACTORS
330
197
102
}
330
197
100
AcDbXrecord
 90
    10781
  0
XRECORD
  5
19D
102
{ACAD_REACTORS
330
197
102
}
330
197
100
AcDbXrecord
340
18
  0
XRECORD
  5
19E
102
{ACAD_REACTORS
330
197
102
}
330
197
100
AcDbXrecord
340
E
  0
XRECORD
  5
1A4
102
{ACAD_REACTORS
330
197
102
}
330
197
100
AcDbXrecord
 40
0.0
  0
XRECORD
  5
1A8
102
{ACAD_REACTORS
330
197
102
}
330
197
100
AcDbXrecord
340
0
  0
XRECORD
  5
1AE
102
{ACAD_REACTORS
330
197
102
}
330
197
100
AcDbXrecord
 10
0.0
 20
0.0
 30
0.0
  0
XRECORD
  5
1AA
102
{ACAD_REACTORS
330
197
102
}
330
197
100
AcDbXrecord
 10
0.0
 20
0.0
 30
0.0
  0
XRECORD
  5
1AD
102
{ACAD_REACTORS
330
197
102
}
330
197
100
AcDbXrecord
 10
0.0
 20
0.0
 30
0.0
  0
XRECORD
  5
1AB
102
{ACAD_REACTORS
330
197
102
}
330
197
100
AcDbXrecord
 10
0.0
 20
0.0
 30
0.0
  0
XRECORD
  5
1AC
102
{ACAD_REACTORS
330
197
102
}
330
197
100
AcDbXrecord
 10
0.0
 20
0.0
 30
0.0
  0
XRECORD
  5
1A9
102
{ACAD_REACTORS
330
197
102
}
330
197
100
AcDbXrecord
 10
0.0
 20
0.0
 30
0.0
  0
XRECORD
  5
1A6
102
{ACAD_REACTORS
330
197
102
}
330
197
100
AcDbXrecord
340
0
  0
XRECORD
  5
1A7
102
{ACAD_REACTORS
330
197
102
}
330
197
100
AcDbXrecord
 70
     0
  0
XRECORD
  5
19B
102
{ACAD_REACTORS
330
197
102
}
330
197
100
AcDbXrecord
  1

  0
XRECORD
  5
198
102
{ACAD_REACTORS
330
197
102
}
330
197
100
AcDbXrecord
 90
        1
  0
XRECORD
  5
199
102
{ACAD_REACTORS
330
197
102
}
330
197
100
AcDbXrecord
 90
       70
  0
XRECORD
  5
1B1
102
{ACAD_REACTORS
330
197
102
}
330
197
100
AcDbXrecord
340
0
  0
XRECORD
  5
1B7
102
{ACAD_REACTORS
330
197
102
}
330
197
100
AcDbXrecord
 10
0.0
 20
0.0
 30
0.0
  0
XRECORD
  5
1B3
102
{ACAD_REACTORS
330
197
102
}
330
197
100
AcDbXrecord
 10
0.0
 20
0.0
 30
0.0
  0
XRECORD
  5
1B6
102
{ACAD_REACTORS
330
197
102
}
330
197
100
AcDbXrecord
 10
0.0
 20
0.0
 30
0.0
  0
XRECORD
  5
1B4
102
{ACAD_REACTORS
330
197
102
}
330
197
100
AcDbXrecord
 10
0.0
 20
0.0
 30
0.0
  0
XRECORD
  5
1B5
102
{ACAD_REACTORS
330
197
102
}
330
197
100
AcDbXrecord
 10
0.0
 20
0.0
 30
0.0
  0
XRECORD
  5
1B2
102
{ACAD_REACTORS
330
197
102
}
330
197
100
AcDbXrecord
 10
0.0
 20
0.0
 30
0.0
  0
XRECORD
  5
1AF
102
{ACAD_REACTORS
330
197
102
}
330
197
100
AcDbXrecord
340
0
  0
XRECORD
  5
1B0
102
{ACAD_REACTORS
330
197
102
}
330
197
100
AcDbXrecord
 70
     0
  0
XRECORD
  5
1A3
102
{ACAD_REACTORS
330
197
102
}
330
197
100
AcDbXrecord
  1
{CE967E3B-0562-405B-9F93-479415299A86}
  0
ENDSEC
  0
EOF
