  0
SECTION
  2
HEADER
  9
$ACADVER
  1
AC1014
  9
$ACADMAINTVER
 70
     9
  9
$DWGCODEPAGE
  3
ANSI_932
  9
$INSBASE
 10
0.0
 20
0.0
 30
0.0
  9
$EXTMIN
 10
-1134.980546025572
 20
-2150.951895918369
 30
0.0
  9
$EXTMAX
 10
2065.022338953171
 20
1692.760700924169
 30
0.0
  9
$LIMMIN
 10
-4200.0
 20
-2970.0
  9
$LIMMAX
 10
4200.0
 20
2970.0
  9
$ORTHOMODE
 70
     0
  9
$REGENMODE
 70
     1
  9
$FILLMODE
 70
     1
  9
$QTEXTMODE
 70
     0
  9
$MIRRTEXT
 70
     0
  9
$DRAGMODE
 70
     2
  9
$LTSCALE
 40
20.0
  9
$OSMODE
 70
    37
  9
$ATTMODE
 70
     1
  9
$TEXTSIZE
 40
64.0
  9
$TRACEWID
 40
0.05
  9
$TEXTSTYLE
  7
STANDARD
  9
$CLAYER
  8
0
  9
$CELTYPE
  6
CONTINUOUS
  9
$CECOLOR
 62
     7
  9
$CELTSCALE
 40
1.0
  9
$DELOBJ
 70
     1
  9
$DISPSILH
 70
     0
  9
$DIMSCALE
 40
1.0
  9
$DIMASZ
 40
10.0
  9
$DIMEXO
 40
20.0
  9
$DIMDLI
 40
200.0
  9
$DIMRND
 40
0.0
  9
$DIMDLE
 40
0.0
  9
$DIMEXE
 40
30.0
  9
$DIMTP
 40
0.0
  9
$DIMTM
 40
0.0
  9
$DIMTXT
 40
64.0
  9
$DIMCEN
 40
0.0
  9
$DIMTSZ
 40
0.0
  9
$DIMTOL
 70
     0
  9
$DIMLIM
 70
     0
  9
$DIMTIH
 70
     0
  9
$DIMTOH
 70
     0
  9
$DIMSE1
 70
     0
  9
$DIMSE2
 70
     0
  9
$DIMTAD
 70
     1
  9
$DIMZIN
 70
     8
  9
$DIMBLK
  1
DOTBLANK
  9
$DIMASO
 70
     1
  9
$DIMSHO
 70
     0
  9
$DIMPOST
  1

  9
$DIMAPOST
  1

  9
$DIMALT
 70
     0
  9
$DIMALTD
 70
     2
  9
$DIMALTF
 40
25.4
  9
$DIMLFAC
 40
1.0
  9
$DIMTOFL
 70
     1
  9
$DIMTVP
 40
0.0
  9
$DIMTIX
 70
     1
  9
$DIMSOXD
 70
     0
  9
$DIMSAH
 70
     0
  9
$DIMBLK1
  1
DOTBLANK
  9
$DIMBLK2
  1
ORIGIN
  9
$DIMSTYLE
  2
STANDARD
  9
$DIMCLRD
 70
     0
  9
$DIMCLRE
 70
     0
  9
$DIMCLRT
 70
     0
  9
$DIMTFAC
 40
1.0
  9
$DIMGAP
 40
0.09
  9
$DIMJUST
 70
     0
  9
$DIMSD1
 70
     0
  9
$DIMSD2
 70
     0
  9
$DIMTOLJ
 70
     1
  9
$DIMTZIN
 70
     0
  9
$DIMALTZ
 70
     0
  9
$DIMALTTZ
 70
     0
  9
$DIMFIT
 70
     3
  9
$DIMUPT
 70
     0
  9
$DIMUNIT
 70
     2
  9
$DIMDEC
 70
     4
  9
$DIMTDEC
 70
     4
  9
$DIMALTU
 70
     2
  9
$DIMALTTD
 70
     2
  9
$DIMTXSTY
  7
STANDARD
  9
$DIMAUNIT
 70
     0
  9
$LUNITS
 70
     2
  9
$LUPREC
 70
     4
  9
$SKETCHINC
 40
0.1
  9
$FILLETRAD
 40
0.0
  9
$AUNITS
 70
     1
  9
$AUPREC
 70
     3
  9
$MENU
  1
ACAD
  9
$ELEVATION
 40
0.0
  9
$PELEVATION
 40
0.0
  9
$THICKNESS
 40
0.0
  9
$LIMCHECK
 70
     0
  9
$BLIPMODE
 70
     0
  9
$CHAMFERA
 40
0.0
  9
$CHAMFERB
 40
0.0
  9
$CHAMFERC
 40
0.0
  9
$CHAMFERD
 40
0.0
  9
$SKPOLY
 70
     0
  9
$TDCREATE
 40
2449761.493622685
  9
$TDUPDATE
 40
2453973.703028136
  9
$TDINDWG
 40
1.2350367708
  9
$TDUSRTIMER
 40
1.2350304398
  9
$USRTIMER
 70
     1
  9
$ANGBASE
 50
0.0
  9
$ANGDIR
 70
     0
  9
$PDMODE
 70
    35
  9
$PDSIZE
 40
100.0
  9
$PLINEWID
 40
0.0
  9
$COORDS
 70
     2
  9
$SPLFRAME
 70
     0
  9
$SPLINETYPE
 70
     6
  9
$SPLINESEGS
 70
     8
  9
$ATTDIA
 70
     0
  9
$ATTREQ
 70
     1
  9
$HANDLING
 70
-16383
  9
$HANDSEED
  5
292
  9
$SURFTAB1
 70
     6
  9
$SURFTAB2
 70
     6
  9
$SURFTYPE
 70
     6
  9
$SURFU
 70
     6
  9
$SURFV
 70
     6
  9
$UCSNAME
  2

  9
$UCSORG
 10
0.0
 20
0.0
 30
0.0
  9
$UCSXDIR
 10
1.0
 20
0.0
 30
0.0
  9
$UCSYDIR
 10
0.0
 20
1.0
 30
0.0
  9
$PUCSNAME
  2

  9
$PUCSORG
 10
0.0
 20
0.0
 30
0.0
  9
$PUCSXDIR
 10
1.0
 20
0.0
 30
0.0
  9
$PUCSYDIR
 10
0.0
 20
1.0
 30
0.0
  9
$USERI1
 70
     0
  9
$USERI2
 70
     0
  9
$USERI3
 70
     0
  9
$USERI4
 70
     0
  9
$USERI5
 70
     0
  9
$USERR1
 40
20.0
  9
$USERR2
 40
0.0
  9
$USERR3
 40
0.0
  9
$USERR4
 40
0.0
  9
$USERR5
 40
0.0
  9
$WORLDVIEW
 70
     1
  9
$SHADEDGE
 70
     3
  9
$SHADEDIF
 70
    70
  9
$TILEMODE
 70
     1
  9
$MAXACTVP
 70
    64
  9
$PINSBASE
 10
0.0
 20
0.0
 30
0.0
  9
$PLIMCHECK
 70
     0
  9
$PEXTMIN
 10
1.000000000000000E+20
 20
1.000000000000000E+20
 30
1.000000000000000E+20
  9
$PEXTMAX
 10
-1.000000000000000E+20
 20
-1.000000000000000E+20
 30
-1.000000000000000E+20
  9
$PLIMMIN
 10
0.0
 20
0.0
  9
$PLIMMAX
 10
12.0
 20
9.0
  9
$UNITMODE
 70
     0
  9
$VISRETAIN
 70
     1
  9
$PLINEGEN
 70
     0
  9
$PSLTSCALE
 70
     1
  9
$TREEDEPTH
 70
  3020
  9
$PICKSTYLE
 70
     0
  9
$CMLSTYLE
  2
STANDARD
  9
$CMLJUST
 70
     0
  9
$CMLSCALE
 40
1.0
  9
$PROXYGRAPHICS
 70
     1
  9
$MEASUREMENT
 70
     0
  0
ENDSEC
  0
SECTION
  2
CLASSES
  0
CLASS
  1
ACDBDICTIONARYWDFLT
  2
AcDbDictionaryWithDefault
  3
AutoCAD 2000
 90
        0
280
     0
281
     0
  0
CLASS
  1
ACDBPLACEHOLDER
  2
AcDbPlaceHolder
  3
AutoCAD 2000
 90
        0
280
     0
281
     0
  0
CLASS
  1
LAYOUT
  2
AcDbLayout
  3
AutoCAD 2000
 90
        0
280
     0
281
     0
  0
CLASS
  1
LONG_TRANSACTION
  2
AcDbLongTransaction
  3
AutoCAD 2000
 90
        0
280
     0
281
     0
  0
CLASS
  1
LWPOLYLINE
  2
AcDbPolyline
  3
AutoCAD 2000
 90
        0
280
     0
281
     1
  0
CLASS
  1
HATCH
  2
AcDbHatch
  3
AutoCAD 2000
 90
        0
280
     0
281
     1
  0
CLASS
  1
XRECORD
  2
AcDbXrecord
  3
AutoCAD 2000
 90
        0
280
     0
281
     0
  0
ENDSEC
  0
SECTION
  2
TABLES
  0
TABLE
  2
VPORT
  5
8
330
0
100
AcDbSymbolTable
 70
     2
  0
VPORT
  5
26C
330
8
100
AcDbSymbolTableRecord
100
AcDbViewportTableRecord
  2
*ACTIVE
 70
     0
 10
0.0
 20
0.0
 11
1.0
 21
1.0
 12
669.0283043925683
 22
-229.1894658469079
 13
0.0
 23
0.0
 14
50.0
 24
50.0
 15
100.0
 25
100.0
 16
0.0
 26
0.0
 36
1.0
 17
0.0
 27
0.0
 37
0.0
 40
3875.138514761015
 41
1.657997399219765
 42
50.0
 43
0.0
 44
0.0
 50
0.0
 51
0.0
 71
     0
 72
  1000
 73
     1
 74
     0
 75
     0
 76
     0
 77
     0
 78
     0
  0
ENDTAB
  0
TABLE
  2
LTYPE
  5
5
330
0
100
AcDbSymbolTable
 70
     2
  0
LTYPE
  5
13
330
5
100
AcDbSymbolTableRecord
100
AcDbLinetypeTableRecord
  2
BYBLOCK
 70
     0
  3

 72
    65
 73
     0
 40
0.0
  0
LTYPE
  5
14
330
5
100
AcDbSymbolTableRecord
100
AcDbLinetypeTableRecord
  2
BYLAYER
 70
     0
  3

 72
    65
 73
     0
 40
0.0
  0
LTYPE
  5
15
330
5
100
AcDbSymbolTableRecord
100
AcDbLinetypeTableRecord
  2
CONTINUOUS
 70
     0
  3
????
 72
    65
 73
     0
 40
0.0
  0
LTYPE
  5
22
330
5
100
AcDbSymbolTableRecord
100
AcDbLinetypeTableRecord
  2
DASHDOT
 70
     0
  3
____ _ ____ _ ____ _ ____ _ ____ _ ____ _ ____
 72
    65
 73
     4
 40
5.5
 49
4.0
 74
     0
 49
-0.6
 74
     0
 49
0.3
 74
     0
 49
-0.6
 74
     0
  0
ENDTAB
  0
TABLE
  2
LAYER
  5
2
330
0
100
AcDbSymbolTable
 70
    12
  0
LAYER
  5
10
330
2
100
AcDbSymbolTableRecord
100
AcDbLayerTableRecord
  2
0
 70
     0
 62
     7
  6
CONTINUOUS
  0
LAYER
  5
23
330
2
100
AcDbSymbolTableRecord
100
AcDbLayerTableRecord
  2
OUTLINE
 70
     0
 62
     3
  6
CONTINUOUS
  0
LAYER
  5
24
330
2
100
AcDbSymbolTableRecord
100
AcDbLayerTableRecord
  2
DETAIL
 70
     0
 62
     5
  6
CONTINUOUS
  0
LAYER
  5
25
330
2
100
AcDbSymbolTableRecord
100
AcDbLayerTableRecord
  2
BASIS
 70
     0
 62
     6
  6
DASHDOT
  0
LAYER
  5
26
330
2
100
AcDbSymbolTableRecord
100
AcDbLayerTableRecord
  2
SIZE
 70
     0
 62
    30
  6
CONTINUOUS
  0
LAYER
  5
27
330
2
100
AcDbSymbolTableRecord
100
AcDbLayerTableRecord
  2
NOTE
 70
     0
 62
     4
  6
CONTINUOUS
  0
LAYER
  5
28
330
2
100
AcDbSymbolTableRecord
100
AcDbLayerTableRecord
  2
ARRANGE
 70
     0
 62
     1
  6
CONTINUOUS
  0
LAYER
  5
29
330
2
100
AcDbSymbolTableRecord
100
AcDbLayerTableRecord
  2
FIX
 70
     0
 62
    11
  6
CONTINUOUS
  0
LAYER
  5
2A
330
2
100
AcDbSymbolTableRecord
100
AcDbLayerTableRecord
  2
SERVICESPACE
 70
     0
 62
     2
  6
DASHDOT
  0
LAYER
  5
2B
330
2
100
AcDbSymbolTableRecord
100
AcDbLayerTableRecord
  2
ETC
 70
     0
 62
    61
  6
CONTINUOUS
  0
LAYER
  5
2C
330
2
100
AcDbSymbolTableRecord
100
AcDbLayerTableRecord
  2
SYMBOLLINE
 70
     0
 62
    15
  6
CONTINUOUS
  0
LAYER
  5
2D
330
2
100
AcDbSymbolTableRecord
100
AcDbLayerTableRecord
  2
DEFPOINTS
 70
     0
 62
     7
  6
CONTINUOUS
  0
ENDTAB
  0
TABLE
  2
STYLE
  5
3
330
0
100
AcDbSymbolTable
 70
     2
  0
STYLE
  5
11
330
3
100
AcDbSymbolTableRecord
100
AcDbTextStyleTableRecord
  2
STANDARD
 70
     0
 40
0.0
 41
0.9
 50
0.0
 71
     0
 42
64.0
  3
SIMPLEX
  4
BIGFONT
  0
STYLE
  5
2E
330
3
100
AcDbSymbolTableRecord
100
AcDbTextStyleTableRecord
  2
STANDARD1
 70
     0
 40
0.0
 41
1.0
 50
0.0
 71
     0
 42
64.0
  3
MONOTXT
  4
BIGFONT
  0
ENDTAB
  0
TABLE
  2
VIEW
  5
6
330
0
100
AcDbSymbolTable
 70
     1
  0
VIEW
  5
2F
330
6
100
AcDbSymbolTableRecord
100
AcDbViewTableRecord
  2
ALL
 70
     0
 40
6056.230032000001
 10
0.0
 20
58.11501599999999
 41
8400.0
 11
0.0
 21
0.0
 31
1.0
 12
0.0
 22
0.0
 32
0.0
 42
50.0
 43
0.0
 44
0.0
 50
0.0
 71
     0
  0
ENDTAB
  0
TABLE
  2
UCS
  5
7
330
0
100
AcDbSymbolTable
 70
     0
  0
ENDTAB
  0
TABLE
  2
APPID
  5
9
330
0
100
AcDbSymbolTable
 70
     1
  0
APPID
  5
12
330
9
100
AcDbSymbolTableRecord
100
AcDbRegAppTableRecord
  2
ACAD
 70
     0
  0
ENDTAB
  0
TABLE
  2
DIMSTYLE
  5
A
330
0
100
AcDbSymbolTable
 70
     1
  0
DIMSTYLE
105
26B
330
A
100
AcDbSymbolTableRecord
100
AcDbDimStyleTableRecord
  2
STANDARD
 70
     0
  3

  4

  5

  6

  7

 40
1.0
 41
0.18
 42
0.0625
 43
0.38
 44
0.18
 45
0.0
 46
0.0
 47
0.0
 48
0.0
140
0.18
141
0.09
142
0.0
143
25.4
144
1.0
145
0.0
146
1.0
147
0.09
 71
     0
 72
     0
 73
     1
 74
     1
 75
     0
 76
     0
 77
     0
 78
     0
170
     0
171
     2
172
     0
173
     0
174
     0
175
     0
176
     0
177
     0
178
     0
270
     2
271
     4
272
     4
273
     2
274
     2
340
11
275
     0
280
     0
281
     0
282
     0
283
     1
284
     0
285
     0
286
     0
287
     3
288
     0
  0
ENDTAB
  0
TABLE
  2
BLOCK_RECORD
  5
1
330
0
100
AcDbSymbolTable
 70
     2
  0
BLOCK_RECORD
  5
1E
102
{ACAD_XDICTIONARY
360
290
102
}
330
1
100
AcDbSymbolTableRecord
100
AcDbBlockTableRecord
  2
*MODEL_SPACE
  0
BLOCK_RECORD
  5
1A
102
{ACAD_XDICTIONARY
360
28E
102
}
330
1
100
AcDbSymbolTableRecord
100
AcDbBlockTableRecord
  2
*PAPER_SPACE
  0
BLOCK_RECORD
  5
34
330
1
100
AcDbSymbolTableRecord
100
AcDbBlockTableRecord
  2
_ORIGIN
  0
BLOCK_RECORD
  5
39
330
1
100
AcDbSymbolTableRecord
100
AcDbBlockTableRecord
  2
_DOTBLANK
  0
ENDTAB
  0
ENDSEC
  0
SECTION
  2
BLOCKS
  0
BLOCK
  5
1F
330
1E
100
AcDbEntity
  8
0
100
AcDbBlockBegin
  2
*MODEL_SPACE
 70
     0
 10
0.0
 20
0.0
 30
0.0
  3
*MODEL_SPACE
  1

  0
ENDBLK
  5
20
330
1E
100
AcDbEntity
  8
0
100
AcDbBlockEnd
  0
BLOCK
  5
1B
330
1A
100
AcDbEntity
 67
     1
  8
0
100
AcDbBlockBegin
  2
*PAPER_SPACE
 70
     0
 10
0.0
 20
0.0
 30
0.0
  3
*PAPER_SPACE
  1

  0
ENDBLK
  5
1C
330
1A
100
AcDbEntity
 67
     1
  8
0
100
AcDbBlockEnd
  0
BLOCK
  5
35
330
34
100
AcDbEntity
  8
0
100
AcDbBlockBegin
  2
_ORIGIN
 70
     0
 10
0.0
 20
0.0
 30
0.0
  3
_ORIGIN
  1

  0
CIRCLE
  5
36
330
34
100
AcDbEntity
  8
0
  6
CONTINUOUS
 62
     7
100
AcDbCircle
 10
0.0
 20
0.0
 30
0.0
 40
0.5
  0
LINE
  5
37
330
34
100
AcDbEntity
  8
0
  6
CONTINUOUS
 62
     7
100
AcDbLine
 10
-0.5
 20
0.0
 30
0.0
 11
-1.0
 21
0.0
 31
0.0
  0
ENDBLK
  5
38
330
34
100
AcDbEntity
  8
0
100
AcDbBlockEnd
  0
BLOCK
  5
3A
330
39
100
AcDbEntity
  8
0
100
AcDbBlockBegin
  2
_DOTBLANK
 70
     0
 10
0.0
 20
0.0
 30
0.0
  3
_DOTBLANK
  1

  0
CIRCLE
  5
3B
330
39
100
AcDbEntity
  8
0
  6
CONTINUOUS
 62
     7
100
AcDbCircle
 10
0.0
 20
0.0
 30
0.0
 40
0.5
  0
LINE
  5
3C
330
39
100
AcDbEntity
  8
0
  6
CONTINUOUS
 62
     7
100
AcDbLine
 10
-0.5
 20
0.0
 30
0.0
 11
-1.0
 21
0.0
 31
0.0
  0
ENDBLK
  5
3D
330
39
100
AcDbEntity
  8
0
100
AcDbBlockEnd
  0
ENDSEC
  0
SECTION
  2
ENTITIES
  0
LINE
  5
3E
330
1E
100
AcDbEntity
  8
BASIS
  6
DASHDOT
 62
     6
100
AcDbLine
 10
-427.1626369999999
 20
0.0000000000003411
 30
0.0
 11
416.9682179999999
 21
0.0000000000003411
 31
0.0
  0
POINT
  5
3F
330
1E
100
AcDbEntity
  8
ARRANGE
  6
CONTINUOUS
 62
     1
100
AcDbPoint
 10
0.0
 20
0.0000000000003411
 30
0.0
  0
LINE
  5
40
330
1E
100
AcDbEntity
  8
BASIS
  6
DASHDOT
 62
     6
100
AcDbLine
 10
0.0
 20
-1021.740032999999
 30
0.0
 11
0.0
 21
1039.956224999998
 31
0.0
  0
LINE
  5
41
330
1E
100
AcDbEntity
  8
DETAIL
  6
CONTINUOUS
 62
     5
100
AcDbLine
 10
316.9999999999997
 20
-972.9999999999996
 30
0.0
 11
317.0
 21
973.0000000000002
 31
0.0
  0
LINE
  5
42
330
1E
100
AcDbEntity
  8
DETAIL
  6
CONTINUOUS
 62
     5
100
AcDbLine
 10
-316.9999999999999
 20
-972.9999999999991
 30
0.0
 11
-317.0
 21
973.0000000000002
 31
0.0
  0
CIRCLE
  5
43
330
1E
100
AcDbEntity
  8
ARRANGE
  6
CONTINUOUS
 62
     1
100
AcDbCircle
 10
0.0
 20
0.0000000000003411
 30
0.0
 40
40.0
  0
TEXT
  5
44
330
1E
100
AcDbEntity
  8
ETC
  6
CONTINUOUS
 62
    61
100
AcDbText
 10
759.2476249999998
 20
1483.080999999999
 30
0.0
 40
64.0
  1
PLFY-P125VLMD-E_1
 41
0.9
100
AcDbText
  0
LINE
  5
45
330
1E
100
AcDbEntity
  8
DETAIL
  6
CONTINUOUS
 62
     5
100
AcDbLine
 10
338.9999999999998
 20
1005.0
 30
0.0
 11
-339.0
 21
1005.0
 31
0.0
  0
LINE
  5
46
330
1E
100
AcDbEntity
  8
DETAIL
  6
CONTINUOUS
 62
     5
100
AcDbLine
 10
338.9999999999998
 20
-1004.999999999999
 30
0.0
 11
-339.0
 21
-1004.999999999999
 31
0.0
  0
LINE
  5
47
330
1E
100
AcDbEntity
  8
DETAIL
  6
CONTINUOUS
 62
     5
100
AcDbLine
 10
312.0
 20
854.0000000000013
 30
0.0
 11
-312.0
 21
854.0000000000013
 31
0.0
  0
LINE
  5
48
330
1E
100
AcDbEntity
  8
DETAIL
  6
CONTINUOUS
 62
     5
100
AcDbLine
 10
311.9999999999998
 20
-853.9999999999988
 30
0.0
 11
-312.0
 21
-853.9999999999988
 31
0.0
  0
LINE
  5
49
330
1E
100
AcDbEntity
  8
DETAIL
  6
CONTINUOUS
 62
     5
100
AcDbLine
 10
354.9999999999998
 20
-988.9999999999997
 30
0.0
 11
354.9999999999998
 21
989.0000000000004
 31
0.0
  0
LINE
  5
4A
330
1E
100
AcDbEntity
  8
DETAIL
  6
CONTINUOUS
 62
     5
100
AcDbLine
 10
-355.0
 20
-988.9999999999997
 30
0.0
 11
-355.0
 21
989.0000000000004
 31
0.0
  0
ARC
  5
4B
330
1E
100
AcDbEntity
  8
DETAIL
  6
CONTINUOUS
 62
     5
100
AcDbCircle
 10
-339.0
 20
989.0000000000004
 30
0.0
 40
16.0
100
AcDbArc
 50
90.0
 51
180.0
  0
ARC
  5
4C
330
1E
100
AcDbEntity
  8
DETAIL
  6
CONTINUOUS
 62
     5
100
AcDbCircle
 10
338.9999999999998
 20
989.0000000000004
 30
0.0
 40
16.0
100
AcDbArc
 50
0.0
 51
90.0
  0
ARC
  5
4D
330
1E
100
AcDbEntity
  8
DETAIL
  6
CONTINUOUS
 62
     5
100
AcDbCircle
 10
338.9999999999998
 20
-988.9999999999997
 30
0.0
 40
16.0
100
AcDbArc
 50
270.0
 51
0.0
  0
ARC
  5
4E
330
1E
100
AcDbEntity
  8
DETAIL
  6
CONTINUOUS
 62
     5
100
AcDbCircle
 10
-339.0
 20
-988.9999999999997
 30
0.0
 40
16.0
100
AcDbArc
 50
180.0
 51
270.0
  0
LINE
  5
4F
330
1E
100
AcDbEntity
  8
DETAIL
  6
CONTINUOUS
 62
     5
100
AcDbLine
 10
317.0
 20
973.0000000000002
 30
0.0
 11
-317.0
 21
973.0000000000002
 31
0.0
  0
LINE
  5
50
330
1E
100
AcDbEntity
  8
DETAIL
  6
CONTINUOUS
 62
     5
100
AcDbLine
 10
316.9999999999999
 20
-972.9999999999996
 30
0.0
 11
-317.0
 21
-972.9999999999996
 31
0.0
  0
LINE
  5
51
330
1E
100
AcDbEntity
  8
DETAIL
  6
CONTINUOUS
 62
     5
100
AcDbLine
 10
-312.0
 20
854.0000000000013
 30
0.0
 11
-312.0
 21
904.0000000000013
 31
0.0
  0
LINE
  5
52
330
1E
100
AcDbEntity
  8
DETAIL
  6
CONTINUOUS
 62
     5
100
AcDbLine
 10
-262.0
 20
854.0000000000013
 30
0.0
 11
-262.0
 21
904.0000000000013
 31
0.0
  0
LINE
  5
53
330
1E
100
AcDbEntity
  8
DETAIL
  6
CONTINUOUS
 62
     5
100
AcDbLine
 10
312.0
 20
854.0000000000013
 30
0.0
 11
312.0
 21
904.0000000000004
 31
0.0
  0
LINE
  5
54
330
1E
100
AcDbEntity
  8
DETAIL
  6
CONTINUOUS
 62
     5
100
AcDbLine
 10
262.0
 20
854.0000000000013
 30
0.0
 11
262.0
 21
904.0000000000004
 31
0.0
  0
LINE
  5
55
330
1E
100
AcDbEntity
  8
DETAIL
  6
CONTINUOUS
 62
     5
100
AcDbLine
 10
261.9999999999998
 20
-853.9999999999984
 30
0.0
 11
261.9999999999998
 21
-903.9999999999997
 31
0.0
  0
LINE
  5
56
330
1E
100
AcDbEntity
  8
DETAIL
  6
CONTINUOUS
 62
     5
100
AcDbLine
 10
312.0
 20
-853.9999999999984
 30
0.0
 11
311.9999999999998
 21
-903.9999999999997
 31
0.0
  0
LINE
  5
57
330
1E
100
AcDbEntity
  8
DETAIL
  6
CONTINUOUS
 62
     5
100
AcDbLine
 10
-262.0
 20
-853.9999999999984
 30
0.0
 11
-262.0
 21
-904.0000000000004
 31
0.0
  0
LINE
  5
58
330
1E
100
AcDbEntity
  8
DETAIL
  6
CONTINUOUS
 62
     5
100
AcDbLine
 10
-312.0
 20
-853.9999999999984
 30
0.0
 11
-312.0
 21
-904.0000000000008
 31
0.0
  0
LINE
  5
59
330
1E
100
AcDbEntity
  8
DETAIL
  6
CONTINUOUS
 62
     5
100
AcDbLine
 10
-292.9999999999994
 20
904.0000000000013
 30
0.0
 11
-292.9999999999994
 21
885.0000000000003
 31
0.0
  0
LINE
  5
5A
330
1E
100
AcDbEntity
  8
DETAIL
  6
CONTINUOUS
 62
     5
100
AcDbLine
 10
-280.9999999999993
 20
904.0000000000013
 30
0.0
 11
-280.9999999999993
 21
885.0000000000003
 31
0.0
  0
LINE
  5
5B
330
1E
100
AcDbEntity
  8
SERVICESPACE
  6
DASHDOT
 62
     2
100
AcDbLine
 10
-335.0
 20
985.0000000000003
 30
0.0
 11
334.9999999999998
 21
985.0000000000003
 31
0.0
  0
LINE
  5
5C
330
1E
100
AcDbEntity
  8
SERVICESPACE
  6
DASHDOT
 62
     2
100
AcDbLine
 10
-335.0
 20
-984.9999999999996
 30
0.0
 11
334.9999999999998
 21
-984.9999999999996
 31
0.0
  0
LINE
  5
5D
330
1E
100
AcDbEntity
  8
SERVICESPACE
  6
DASHDOT
 62
     2
100
AcDbLine
 10
334.9999999999998
 20
-984.9999999999996
 30
0.0
 11
335.0
 21
985.0
 31
0.0
  0
LINE
  5
5E
330
1E
100
AcDbEntity
  8
SERVICESPACE
  6
DASHDOT
 62
     2
100
AcDbLine
 10
-335.0
 20
985.0
 30
0.0
 11
-334.9999999999998
 21
-984.9999999999996
 31
0.0
  0
LINE
  5
5F
330
1E
100
AcDbEntity
  8
NOTE
  6
CONTINUOUS
 62
     4
100
AcDbLine
 10
125.0000000000005
 20
-911.000000000001
 30
0.0
 11
747.789669896828
 21
-1672.583916277836
 31
0.0
  0
LINE
  5
60
330
1E
100
AcDbEntity
  8
NOTE
  6
CONTINUOUS
 62
     4
100
AcDbLine
 10
54.99999999999936
 20
-923.9999999999961
 30
0.0
 11
668.5233893838179
 21
-1874.422547328272
 31
0.0
  0
LINE
  5
61
330
1E
100
AcDbEntity
  8
NOTE
  6
CONTINUOUS
 62
     4
100
AcDbLine
 10
747.789669896828
 20
-1672.583916277836
 30
0.0
 11
1152.629102896828
 21
-1672.583916277836
 31
0.0
  0
TEXT
  5
62
330
1E
100
AcDbEntity
  8
NOTE
  6
CONTINUOUS
 62
     4
100
AcDbText
 10
768.8037258968281
 20
-1654.317751277836
 30
0.0
 40
64.0
  1
RL %%c9.52
 41
0.9
100
AcDbText
  0
LINE
  5
63
330
1E
100
AcDbEntity
  8
NOTE
  6
CONTINUOUS
 62
     4
100
AcDbLine
 10
-172.9999999999981
 20
-883.9999999999971
 30
0.0
 11
-629.9285920255721
 21
-1283.290280297553
 31
0.0
  0
LINE
  5
64
330
1E
100
AcDbEntity
  8
NOTE
  6
CONTINUOUS
 62
     4
100
AcDbLine
 10
-629.9285920255721
 20
-1283.290280297553
 30
0.0
 11
-1134.980546025572
 21
-1283.290280297553
 31
0.0
  0
TEXT
  5
65
330
1E
100
AcDbEntity
  8
NOTE
  6
CONTINUOUS
 62
     4
100
AcDbText
 10
-1105.451218862934
 20
-1256.621584769002
 30
0.0
 40
64.0
  1
D1 VP-25
 41
0.9
100
AcDbText
  0
LINE
  5
66
330
1E
100
AcDbEntity
  8
DETAIL
  6
CONTINUOUS
 62
     5
100
AcDbLine
 10
10.0
 20
-967.9999999999987
 30
0.0
 11
10.0
 21
-853.9999999999983
 31
0.0
  0
LINE
  5
67
330
1E
100
AcDbEntity
  8
NOTE
  6
CONTINUOUS
 62
     4
100
AcDbLine
 10
-99.99999999999912
 20
-967.9999999999976
 30
0.0
 11
-545.6917621004849
 21
-1610.614073874842
 31
0.0
  0
LINE
  5
68
330
1E
100
AcDbEntity
  8
NOTE
  6
CONTINUOUS
 62
     4
100
AcDbLine
 10
-545.6917621004849
 20
-1610.614073874842
 30
0.0
 11
-681.3958161004852
 21
-1610.614073874842
 31
0.0
  0
TEXT
  5
69
330
1E
100
AcDbEntity
  8
NOTE
  6
CONTINUOUS
 62
     4
100
AcDbText
 10
-654.3362071004851
 20
-1590.513555874841
 30
0.0
 40
64.0
  1
CL
 41
0.9
100
AcDbText
  0
LINE
  5
6A
330
1E
100
AcDbEntity
  8
NOTE
  6
CONTINUOUS
 62
     4
100
AcDbLine
 10
694.5758287328051
 20
-1408.199310798119
 30
0.0
 11
873.5899417328052
 21
-1408.199310798119
 31
0.0
  0
TEXT
  5
6B
330
1E
100
AcDbEntity
  8
NOTE
  6
CONTINUOUS
 62
     4
100
AcDbText
 10
742.116382355677
 20
-1383.912899329994
 30
0.0
 40
64.0
  1
D2
 41
0.9
100
AcDbText
  0
TEXT
  5
6C
330
1E
100
AcDbEntity
  8
NOTE
  6
CONTINUOUS
 62
     4
100
AcDbText
 10
-938.3582261843804
 20
-293.6727071894016
 30
0.0
 40
64.0
  1
(Ceiling opening)
 50
90.0
 41
0.9
100
AcDbText
  0
LINE
  5
6D
330
1E
100
AcDbEntity
  8
NOTE
  6
CONTINUOUS
 62
     4
100
AcDbLine
 10
287.0000000000002
 20
878.000000000001
 30
0.0
 11
679.4201655534716
 21
1255.5193060284
 31
0.0
  0
LINE
  5
6E
330
1E
100
AcDbEntity
  8
NOTE
  6
CONTINUOUS
 62
     4
100
AcDbLine
 10
-29.99999999999932
 20
-967.9999999999973
 30
0.0
 11
-466.766724643929
 21
-1777.857144518288
 31
0.0
  0
LINE
  5
6F
330
1E
100
AcDbEntity
  8
NOTE
  6
CONTINUOUS
 62
     4
100
AcDbLine
 10
-466.766724643929
 20
-1777.857144518288
 30
0.0
 11
-604.9908826439291
 21
-1777.857144518288
 31
0.0
  0
TEXT
  5
70
330
1E
100
AcDbEntity
  8
NOTE
  6
CONTINUOUS
 62
     4
100
AcDbText
 10
-577.0717936439291
 20
-1759.202243518288
 30
0.0
 40
64.0
  1
EL
 41
0.9
100
AcDbText
  0
LWPOLYLINE
  5
71
330
1E
100
AcDbEntity
  8
NOTE
  6
CONTINUOUS
 62
     4
100
AcDbPolyline
 90
        3
 70
     0
 43
0.0
 10
-39.37617115930006
 20
-1006.885568066496
 10
-29.99999999999916
 20
-967.9999999999976
 10
-57.56278625292241
 20
-996.9878040249342
  0
LWPOLYLINE
  5
76
330
1E
100
AcDbEntity
  8
NOTE
  6
CONTINUOUS
 62
     4
100
AcDbPolyline
 90
        3
 70
     0
 43
0.0
 10
307.7561481725341
 20
912.1933084462355
 10
287.0
 20
878.0000000000004
 10
322.0720053789992
 20
897.2341986884643
  0
LWPOLYLINE
  5
7B
330
1E
100
AcDbEntity
  8
NOTE
  6
CONTINUOUS
 62
     4
100
AcDbPolyline
 90
        3
 70
     0
 43
0.0
 10
-113.9864515607601
 20
-1005.475047061544
 10
-99.99999999999905
 20
-967.9999999999981
 10
-130.8501462641169
 20
-993.4611165028128
  0
LWPOLYLINE
  5
80
330
1E
100
AcDbEntity
  8
NOTE
  6
CONTINUOUS
 62
     4
100
AcDbPolyline
 90
        3
 70
     0
 43
0.0
 10
-195.0904619999981
 20
-917.3468359999979
 10
-172.9999999999981
 20
-883.9999999999976
 10
-208.804318999998
 20
-901.8339759999975
  0
LWPOLYLINE
  5
85
330
1E
100
AcDbEntity
  8
NOTE
  6
CONTINUOUS
 62
     4
100
AcDbPolyline
 90
        3
 70
     0
 43
0.0
 10
84.49475754677557
 20
-951.019608891482
 10
54.99999999999932
 20
-923.9999999999966
 10
67.03340425193117
 20
-962.1470468825632
  0
LWPOLYLINE
  5
8A
330
1E
100
AcDbEntity
  8
NOTE
  6
CONTINUOUS
 62
     4
100
AcDbPolyline
 90
        3
 70
     0
 43
0.0
 10
157.4392843218554
 20
-934.4028378030616
 10
125.0000000000005
 20
-911.0000000000017
 10
141.3918257416058
 20
-947.4870939935248
  0
LINE
  5
8F
330
1E
100
AcDbEntity
  8
NOTE
  6
CONTINUOUS
 62
     4
100
AcDbLine
 10
-287.0
 20
-897.9999999999982
 30
0.0
 11
-287.0
 21
-857.9999999999982
 31
0.0
  0
LINE
  5
90
330
1E
100
AcDbEntity
  8
NOTE
  6
CONTINUOUS
 62
     4
100
AcDbLine
 10
-307.0
 20
-877.9999999999983
 30
0.0
 11
-267.0
 21
-877.9999999999983
 31
0.0
  0
LINE
  5
91
330
1E
100
AcDbEntity
  8
NOTE
  6
CONTINUOUS
 62
     4
100
AcDbLine
 10
286.9999999999998
 20
-897.9999999999986
 30
0.0
 11
286.9999999999998
 21
-857.9999999999985
 31
0.0
  0
LINE
  5
92
330
1E
100
AcDbEntity
  8
NOTE
  6
CONTINUOUS
 62
     4
100
AcDbLine
 10
266.9999999999999
 20
-877.9999999999985
 30
0.0
 11
306.9999999999998
 21
-877.9999999999985
 31
0.0
  0
LINE
  5
93
330
1E
100
AcDbEntity
  8
NOTE
  6
CONTINUOUS
 62
     4
100
AcDbLine
 10
287.0
 20
858.000000000001
 30
0.0
 11
287.0
 21
898.0000000000011
 31
0.0
  0
LINE
  5
94
330
1E
100
AcDbEntity
  8
NOTE
  6
CONTINUOUS
 62
     4
100
AcDbLine
 10
267.0
 20
878.000000000001
 30
0.0
 11
307.0
 21
878.000000000001
 31
0.0
  0
LINE
  5
95
330
1E
100
AcDbEntity
  8
NOTE
  6
CONTINUOUS
 62
     4
100
AcDbLine
 10
-286.9999999999993
 20
858.0000000000003
 30
0.0
 11
-286.9999999999993
 21
898.0000000000003
 31
0.0
  0
LINE
  5
96
330
1E
100
AcDbEntity
  8
NOTE
  6
CONTINUOUS
 62
     4
100
AcDbLine
 10
-306.9999999999993
 20
878.0000000000002
 30
0.0
 11
-266.9999999999995
 21
878.0000000000002
 31
0.0
  0
TEXT
  5
97
330
1E
100
AcDbEntity
  8
0
  6
CONTINUOUS
 62
     7
100
AcDbText
 10
12761.29
 20
1934.172
 30
0.0
 40
3.2
  1
 
 50
0.000003
 41
0.5989580000000001
  7
STANDARD1
100
AcDbText
  0
CIRCLE
  5
98
330
1E
100
AcDbEntity
  8
FIX
  6
CONTINUOUS
 62
    11
100
AcDbCircle
 10
-286.9999999999993
 20
878.0000000000002
 30
0.0
 40
20.0
  0
CIRCLE
  5
99
330
1E
100
AcDbEntity
  8
FIX
  6
CONTINUOUS
 62
    11
100
AcDbCircle
 10
287.0
 20
878.000000000001
 30
0.0
 40
20.0
  0
CIRCLE
  5
9A
330
1E
100
AcDbEntity
  8
FIX
  6
CONTINUOUS
 62
    11
100
AcDbCircle
 10
-287.0
 20
-877.9999999999983
 30
0.0
 40
20.0
  0
CIRCLE
  5
9B
330
1E
100
AcDbEntity
  8
FIX
  6
CONTINUOUS
 62
    11
100
AcDbCircle
 10
286.9999999999998
 20
-877.9999999999985
 30
0.0
 40
20.0
  0
TEXT
  5
9C
330
1E
100
AcDbEntity
  8
NOTE
  6
CONTINUOUS
 62
     4
100
AcDbText
 10
-384.5393073073159
 20
1329.303028328711
 30
0.0
 40
64.0
  1
(Lifting bolt pitch)
 41
0.9
100
AcDbText
  0
TEXT
  5
9D
330
1E
100
AcDbEntity
  8
NOTE
  6
CONTINUOUS
 62
     4
100
AcDbText
 10
1374.693553540011
 20
-389.5693998528809
 30
0.0
 40
64.0
  1
(Lifting bolt pitch)
 50
90.0
 41
0.9
100
AcDbText
  0
TEXT
  5
9E
330
1E
100
AcDbEntity
  8
NOTE
  6
CONTINUOUS
 62
     4
100
AcDbText
 10
-351.859850033556
 20
1616.570224733691
 30
0.0
 40
64.0
  1
(Ceiling opening)
 41
0.9
100
AcDbText
  0
LINE
  5
9F
330
1E
100
AcDbEntity
  8
SIZE
  6
CONTINUOUS
 62
    30
100
AcDbLine
 10
-355.0
 20
985.0000000000003
 30
0.0
 11
-849.7089385941873
 21
985.0000000000003
 31
0.0
  0
LINE
  5
A0
330
1E
100
AcDbEntity
  8
SIZE
  6
CONTINUOUS
 62
    30
100
AcDbLine
 10
-359.0
 20
1005.0
 30
0.0
 11
-849.7089385941873
 21
1005.0
 31
0.0
  0
LINE
  5
A1
330
1E
100
AcDbEntity
  8
SIZE
  6
CONTINUOUS
 62
    30
100
AcDbLine
 10
-819.7089385941874
 20
975.0000000000003
 30
0.0
 11
-819.7089385941874
 21
965.0000000000003
 31
0.0
  0
LINE
  5
A2
330
1E
100
AcDbEntity
  8
SIZE
  6
CONTINUOUS
 62
    30
100
AcDbLine
 10
-819.7089385941874
 20
1015.0
 30
0.0
 11
-819.7089385941874
 21
1158.257142857143
 31
0.0
  0
LINE
  5
A3
330
1E
100
AcDbEntity
  8
SIZE
  6
CONTINUOUS
 62
    30
100
AcDbLine
 10
-819.7089385941874
 20
985.0000000000003
 30
0.0
 11
-819.7089385941874
 21
1005.0
 31
0.0
  0
CIRCLE
  5
A4
330
1E
100
AcDbEntity
  8
SIZE
  6
CONTINUOUS
 62
    30
100
AcDbCircle
 10
-819.7089385941874
 20
985.0000000000003
 30
0.0
 40
5.0
  0
LINE
  5
A5
330
1E
100
AcDbEntity
  8
SIZE
  6
CONTINUOUS
 62
    30
100
AcDbLine
 10
-819.7089385941874
 20
980.0000000000004
 30
0.0
 11
-819.7089385941874
 21
975.0000000000003
 31
0.0
  0
CIRCLE
  5
A6
330
1E
100
AcDbEntity
  8
SIZE
  6
CONTINUOUS
 62
    30
100
AcDbCircle
 10
-819.7089385941874
 20
1005.0
 30
0.0
 40
5.0
  0
LINE
  5
A7
330
1E
100
AcDbEntity
  8
SIZE
  6
CONTINUOUS
 62
    30
100
AcDbLine
 10
-819.7089385941874
 20
1010.0
 30
0.0
 11
-819.7089385941874
 21
1015.0
 31
0.0
  0
TEXT
  5
A8
330
1E
100
AcDbEntity
  8
SIZE
  6
CONTINUOUS
 62
    30
100
AcDbText
 10
-839.7089385941873
 20
1044.999999999999
 30
0.0
 40
64.0
  1
20
 50
90.0
 41
0.9
 72
     1
 11
-839.7089385941873
 21
1091.62857142857
 31
0.0
100
AcDbText
  0
POINT
  5
A9
330
1E
100
AcDbEntity
  8
DEFPOINTS
  6
CONTINUOUS
 62
     7
100
AcDbPoint
 10
-335.0
 20
985.0000000000003
 30
0.0
  0
POINT
  5
AA
330
1E
100
AcDbEntity
  8
DEFPOINTS
  6
CONTINUOUS
 62
     7
100
AcDbPoint
 10
-339.0
 20
1005.0
 30
0.0
  0
POINT
  5
AB
330
1E
100
AcDbEntity
  8
DEFPOINTS
  6
CONTINUOUS
 62
     7
100
AcDbPoint
 10
-819.7089385941874
 20
1005.0
 30
0.0
  0
LINE
  5
AC
330
1E
100
AcDbEntity
  8
SIZE
  6
CONTINUOUS
 62
    30
100
AcDbLine
 10
-355.0
 20
-984.9999999999996
 30
0.0
 11
-849.7089385941873
 21
-984.9999999999996
 31
0.0
  0
LINE
  5
AD
330
1E
100
AcDbEntity
  8
SIZE
  6
CONTINUOUS
 62
    30
100
AcDbLine
 10
-355.0
 20
-1004.999999999999
 30
0.0
 11
-849.7089385941873
 21
-1004.999999999999
 31
0.0
  0
LINE
  5
AE
330
1E
100
AcDbEntity
  8
SIZE
  6
CONTINUOUS
 62
    30
100
AcDbLine
 10
-819.7089385941874
 20
-974.9999999999996
 30
0.0
 11
-819.7089385941874
 21
-964.9999999999996
 31
0.0
  0
LINE
  5
AF
330
1E
100
AcDbEntity
  8
SIZE
  6
CONTINUOUS
 62
    30
100
AcDbLine
 10
-819.7089385941874
 20
-1014.999999999999
 30
0.0
 11
-819.7089385941874
 21
-1158.257142857142
 31
0.0
  0
LINE
  5
B0
330
1E
100
AcDbEntity
  8
SIZE
  6
CONTINUOUS
 62
    30
100
AcDbLine
 10
-819.7089385941874
 20
-984.9999999999996
 30
0.0
 11
-819.7089385941874
 21
-1004.999999999999
 31
0.0
  0
CIRCLE
  5
B1
330
1E
100
AcDbEntity
  8
SIZE
  6
CONTINUOUS
 62
    30
100
AcDbCircle
 10
-819.7089385941874
 20
-984.9999999999996
 30
0.0
 40
5.0
  0
LINE
  5
B2
330
1E
100
AcDbEntity
  8
SIZE
  6
CONTINUOUS
 62
    30
100
AcDbLine
 10
-819.7089385941874
 20
-979.9999999999997
 30
0.0
 11
-819.7089385941874
 21
-974.9999999999996
 31
0.0
  0
CIRCLE
  5
B3
330
1E
100
AcDbEntity
  8
SIZE
  6
CONTINUOUS
 62
    30
100
AcDbCircle
 10
-819.7089385941874
 20
-1004.999999999999
 30
0.0
 40
5.0
  0
LINE
  5
B4
330
1E
100
AcDbEntity
  8
SIZE
  6
CONTINUOUS
 62
    30
100
AcDbLine
 10
-819.7089385941874
 20
-1009.999999999999
 30
0.0
 11
-819.7089385941874
 21
-1014.999999999999
 31
0.0
  0
TEXT
  5
B5
330
1E
100
AcDbEntity
  8
SIZE
  6
CONTINUOUS
 62
    30
100
AcDbText
 10
-839.7089385941873
 20
-1138.257142857142
 30
0.0
 40
64.0
  1
20
 50
90.0
 41
0.9
 72
     1
 11
-839.7089385941873
 21
-1091.62857142857
 31
0.0
100
AcDbText
  0
POINT
  5
B6
330
1E
100
AcDbEntity
  8
DEFPOINTS
  6
CONTINUOUS
 62
     7
100
AcDbPoint
 10
-335.0
 20
-984.9999999999996
 30
0.0
  0
POINT
  5
B7
330
1E
100
AcDbEntity
  8
DEFPOINTS
  6
CONTINUOUS
 62
     7
100
AcDbPoint
 10
-335.0
 20
-1004.999999999999
 30
0.0
  0
POINT
  5
B8
330
1E
100
AcDbEntity
  8
DEFPOINTS
  6
CONTINUOUS
 62
     7
100
AcDbPoint
 10
-819.7089385941874
 20
-1004.999999999999
 30
0.0
  0
LINE
  5
B9
330
1E
100
AcDbEntity
  8
SIZE
  6
CONTINUOUS
 62
    30
100
AcDbLine
 10
-355.0
 20
-1008.999999999999
 30
0.0
 11
-355.0
 21
-1894.578
 31
0.0
  0
LINE
  5
BA
330
1E
100
AcDbEntity
  8
SIZE
  6
CONTINUOUS
 62
    30
100
AcDbLine
 10
354.9999999999998
 20
-1008.999999999999
 30
0.0
 11
354.9999999999997
 21
-1894.578
 31
0.0
  0
LINE
  5
BB
330
1E
100
AcDbEntity
  8
SIZE
  6
CONTINUOUS
 62
    30
100
AcDbLine
 10
-345.0
 20
-1864.577999999999
 30
0.0
 11
344.9999999999997
 21
-1864.577999999999
 31
0.0
  0
CIRCLE
  5
BC
330
1E
100
AcDbEntity
  8
SIZE
  6
CONTINUOUS
 62
    30
100
AcDbCircle
 10
-355.0
 20
-1864.577999999999
 30
0.0
 40
5.0
  0
LINE
  5
BD
330
1E
100
AcDbEntity
  8
SIZE
  6
CONTINUOUS
 62
    30
100
AcDbLine
 10
-350.0
 20
-1864.577999999999
 30
0.0
 11
-345.0
 21
-1864.577999999999
 31
0.0
  0
CIRCLE
  5
BE
330
1E
100
AcDbEntity
  8
SIZE
  6
CONTINUOUS
 62
    30
100
AcDbCircle
 10
354.9999999999997
 20
-1864.577999999999
 30
0.0
 40
5.0
  0
LINE
  5
BF
330
1E
100
AcDbEntity
  8
SIZE
  6
CONTINUOUS
 62
    30
100
AcDbLine
 10
349.9999999999997
 20
-1864.577999999999
 30
0.0
 11
344.9999999999997
 21
-1864.577999999999
 31
0.0
  0
TEXT
  5
C0
330
1E
100
AcDbEntity
  8
SIZE
  6
CONTINUOUS
 62
    30
100
AcDbText
 10
-68.57142857142865
 20
-1844.578
 30
0.0
 40
64.0
  1
710
 41
0.9
 72
     1
 11
-0.0000000000000853
 21
-1844.578
 31
0.0
100
AcDbText
  0
POINT
  5
C1
330
1E
100
AcDbEntity
  8
DEFPOINTS
  6
CONTINUOUS
 62
     7
100
AcDbPoint
 10
-355.0
 20
-988.9999999999997
 30
0.0
  0
POINT
  5
C2
330
1E
100
AcDbEntity
  8
DEFPOINTS
  6
CONTINUOUS
 62
     7
100
AcDbPoint
 10
354.9999999999998
 20
-988.9999999999997
 30
0.0
  0
POINT
  5
C3
330
1E
100
AcDbEntity
  8
DEFPOINTS
  6
CONTINUOUS
 62
     7
100
AcDbPoint
 10
354.9999999999997
 20
-1864.577999999999
 30
0.0
  0
LINE
  5
C4
330
1E
100
AcDbEntity
  8
SIZE
  6
CONTINUOUS
 62
    30
100
AcDbLine
 10
-287.0
 20
917.0000000000012
 30
0.0
 11
-287.0
 21
1209.907031999998
 31
0.0
  0
LINE
  5
C5
330
1E
100
AcDbEntity
  8
SIZE
  6
CONTINUOUS
 62
    30
100
AcDbLine
 10
287.0
 20
917.0000000000012
 30
0.0
 11
287.0
 21
1209.907031999998
 31
0.0
  0
LINE
  5
C6
330
1E
100
AcDbEntity
  8
SIZE
  6
CONTINUOUS
 62
    30
100
AcDbLine
 10
-277.0
 20
1179.907031999998
 30
0.0
 11
277.0
 21
1179.907031999998
 31
0.0
  0
CIRCLE
  5
C7
330
1E
100
AcDbEntity
  8
SIZE
  6
CONTINUOUS
 62
    30
100
AcDbCircle
 10
-287.0
 20
1179.907031999998
 30
0.0
 40
5.0
  0
LINE
  5
C8
330
1E
100
AcDbEntity
  8
SIZE
  6
CONTINUOUS
 62
    30
100
AcDbLine
 10
-282.0
 20
1179.907031999998
 30
0.0
 11
-277.0
 21
1179.907031999998
 31
0.0
  0
CIRCLE
  5
C9
330
1E
100
AcDbEntity
  8
SIZE
  6
CONTINUOUS
 62
    30
100
AcDbCircle
 10
287.0
 20
1179.907031999998
 30
0.0
 40
5.0
  0
LINE
  5
CA
330
1E
100
AcDbEntity
  8
SIZE
  6
CONTINUOUS
 62
    30
100
AcDbLine
 10
282.0
 20
1179.907031999998
 30
0.0
 11
277.0
 21
1179.907031999998
 31
0.0
  0
TEXT
  5
CB
330
1E
100
AcDbEntity
  8
SIZE
  6
CONTINUOUS
 62
    30
100
AcDbText
 10
-75.42857142857139
 20
1199.907031999998
 30
0.0
 40
64.0
  1
574
 41
0.9
 72
     1
 11
0.0000000000000284
 21
1199.907031999998
 31
0.0
100
AcDbText
  0
POINT
  5
CC
330
1E
100
AcDbEntity
  8
DEFPOINTS
  6
CONTINUOUS
 62
     7
100
AcDbPoint
 10
-287.0
 20
897.0000000000013
 30
0.0
  0
POINT
  5
CD
330
1E
100
AcDbEntity
  8
DEFPOINTS
  6
CONTINUOUS
 62
     7
100
AcDbPoint
 10
287.0
 20
897.0000000000011
 30
0.0
  0
POINT
  5
CE
330
1E
100
AcDbEntity
  8
DEFPOINTS
  6
CONTINUOUS
 62
     7
100
AcDbPoint
 10
287.0
 20
1179.907031999998
 30
0.0
  0
LINE
  5
CF
330
1E
100
AcDbEntity
  8
SIZE
  6
CONTINUOUS
 62
    30
100
AcDbLine
 10
-335.0
 20
1005.0
 30
0.0
 11
-334.9999999999998
 21
1499.633812723137
 31
0.0
  0
LINE
  5
D0
330
1E
100
AcDbEntity
  8
SIZE
  6
CONTINUOUS
 62
    30
100
AcDbLine
 10
334.9999999999998
 20
1005.0
 30
0.0
 11
335.0
 21
1499.633812723137
 31
0.0
  0
LINE
  5
D1
330
1E
100
AcDbEntity
  8
SIZE
  6
CONTINUOUS
 62
    30
100
AcDbLine
 10
-324.9999999999999
 20
1469.633812723138
 30
0.0
 11
325.0
 21
1469.633812723138
 31
0.0
  0
CIRCLE
  5
D2
330
1E
100
AcDbEntity
  8
SIZE
  6
CONTINUOUS
 62
    30
100
AcDbCircle
 10
-334.9999999999998
 20
1469.633812723138
 30
0.0
 40
5.0
  0
LINE
  5
D3
330
1E
100
AcDbEntity
  8
SIZE
  6
CONTINUOUS
 62
    30
100
AcDbLine
 10
-329.9999999999998
 20
1469.633812723138
 30
0.0
 11
-324.9999999999999
 21
1469.633812723138
 31
0.0
  0
CIRCLE
  5
D4
330
1E
100
AcDbEntity
  8
SIZE
  6
CONTINUOUS
 62
    30
100
AcDbCircle
 10
335.0
 20
1469.633812723138
 30
0.0
 40
5.0
  0
LINE
  5
D5
330
1E
100
AcDbEntity
  8
SIZE
  6
CONTINUOUS
 62
    30
100
AcDbLine
 10
330.0
 20
1469.633812723138
 30
0.0
 11
325.0
 21
1469.633812723138
 31
0.0
  0
TEXT
  5
D6
330
1E
100
AcDbEntity
  8
SIZE
  6
CONTINUOUS
 62
    30
100
AcDbText
 10
-74.05714285714282
 20
1489.633812723138
 30
0.0
 40
64.0
  1
670
 41
0.9
 72
     1
 11
0.0000000000000284
 21
1489.633812723138
 31
0.0
100
AcDbText
  0
POINT
  5
D7
330
1E
100
AcDbEntity
  8
DEFPOINTS
  6
CONTINUOUS
 62
     7
100
AcDbPoint
 10
-335.0
 20
985.0000000000003
 30
0.0
  0
POINT
  5
D8
330
1E
100
AcDbEntity
  8
DEFPOINTS
  6
CONTINUOUS
 62
     7
100
AcDbPoint
 10
334.9999999999998
 20
985.0000000000003
 30
0.0
  0
POINT
  5
D9
330
1E
100
AcDbEntity
  8
DEFPOINTS
  6
CONTINUOUS
 62
     7
100
AcDbPoint
 10
335.0
 20
1469.633812723138
 30
0.0
  0
LINE
  5
DA
330
1E
100
AcDbEntity
  8
SIZE
  6
CONTINUOUS
 62
    30
100
AcDbLine
 10
-287.0
 20
917.0000000000012
 30
0.0
 11
-287.0
 21
1209.907031999998
 31
0.0
  0
LINE
  5
DB
330
1E
100
AcDbEntity
  8
SIZE
  6
CONTINUOUS
 62
    30
100
AcDbLine
 10
-335.0
 20
1005.0
 30
0.0
 11
-335.0
 21
1209.907031999998
 31
0.0
  0
LINE
  5
DC
330
1E
100
AcDbEntity
  8
SIZE
  6
CONTINUOUS
 62
    30
100
AcDbLine
 10
-277.0
 20
1179.907031999998
 30
0.0
 11
-267.0
 21
1179.907031999998
 31
0.0
  0
LINE
  5
DD
330
1E
100
AcDbEntity
  8
SIZE
  6
CONTINUOUS
 62
    30
100
AcDbLine
 10
-345.0
 20
1179.907031999998
 30
0.0
 11
-488.2571428571428
 21
1179.907031999998
 31
0.0
  0
LINE
  5
DE
330
1E
100
AcDbEntity
  8
SIZE
  6
CONTINUOUS
 62
    30
100
AcDbLine
 10
-287.0
 20
1179.907031999998
 30
0.0
 11
-335.0
 21
1179.907031999998
 31
0.0
  0
CIRCLE
  5
DF
330
1E
100
AcDbEntity
  8
SIZE
  6
CONTINUOUS
 62
    30
100
AcDbCircle
 10
-287.0
 20
1179.907031999998
 30
0.0
 40
5.0
  0
LINE
  5
E0
330
1E
100
AcDbEntity
  8
SIZE
  6
CONTINUOUS
 62
    30
100
AcDbLine
 10
-282.0
 20
1179.907031999998
 30
0.0
 11
-277.0
 21
1179.907031999998
 31
0.0
  0
CIRCLE
  5
E1
330
1E
100
AcDbEntity
  8
SIZE
  6
CONTINUOUS
 62
    30
100
AcDbCircle
 10
-335.0
 20
1179.907031999998
 30
0.0
 40
5.0
  0
LINE
  5
E2
330
1E
100
AcDbEntity
  8
SIZE
  6
CONTINUOUS
 62
    30
100
AcDbLine
 10
-340.0
 20
1179.907031999998
 30
0.0
 11
-345.0
 21
1179.907031999998
 31
0.0
  0
TEXT
  5
E3
330
1E
100
AcDbEntity
  8
SIZE
  6
CONTINUOUS
 62
    30
100
AcDbText
 10
-468.2571428571428
 20
1199.907031999998
 30
0.0
 40
64.0
  1
48
 41
0.9
 72
     1
 11
-421.6285714285714
 21
1199.907031999998
 31
0.0
100
AcDbText
  0
POINT
  5
E4
330
1E
100
AcDbEntity
  8
DEFPOINTS
  6
CONTINUOUS
 62
     7
100
AcDbPoint
 10
-287.0
 20
897.0000000000013
 30
0.0
  0
POINT
  5
E5
330
1E
100
AcDbEntity
  8
DEFPOINTS
  6
CONTINUOUS
 62
     7
100
AcDbPoint
 10
-335.0
 20
985.0000000000003
 30
0.0
  0
POINT
  5
E6
330
1E
100
AcDbEntity
  8
DEFPOINTS
  6
CONTINUOUS
 62
     7
100
AcDbPoint
 10
-335.0
 20
1179.907031999998
 30
0.0
  0
LINE
  5
E7
330
1E
100
AcDbEntity
  8
SIZE
  6
CONTINUOUS
 62
    30
100
AcDbLine
 10
287.0
 20
917.0000000000012
 30
0.0
 11
287.0
 21
1209.907031999998
 31
0.0
  0
LINE
  5
E8
330
1E
100
AcDbEntity
  8
SIZE
  6
CONTINUOUS
 62
    30
100
AcDbLine
 10
334.9999999999998
 20
1005.0
 30
0.0
 11
334.9999999999998
 21
1209.907031999998
 31
0.0
  0
LINE
  5
E9
330
1E
100
AcDbEntity
  8
SIZE
  6
CONTINUOUS
 62
    30
100
AcDbLine
 10
277.0
 20
1179.907031999998
 30
0.0
 11
267.0
 21
1179.907031999998
 31
0.0
  0
LINE
  5
EA
330
1E
100
AcDbEntity
  8
SIZE
  6
CONTINUOUS
 62
    30
100
AcDbLine
 10
344.9999999999998
 20
1179.907031999998
 30
0.0
 11
488.2571428571428
 21
1179.907031999998
 31
0.0
  0
LINE
  5
EB
330
1E
100
AcDbEntity
  8
SIZE
  6
CONTINUOUS
 62
    30
100
AcDbLine
 10
287.0
 20
1179.907031999998
 30
0.0
 11
334.9999999999998
 21
1179.907031999998
 31
0.0
  0
CIRCLE
  5
EC
330
1E
100
AcDbEntity
  8
SIZE
  6
CONTINUOUS
 62
    30
100
AcDbCircle
 10
287.0
 20
1179.907031999998
 30
0.0
 40
5.0
  0
LINE
  5
ED
330
1E
100
AcDbEntity
  8
SIZE
  6
CONTINUOUS
 62
    30
100
AcDbLine
 10
282.0
 20
1179.907031999998
 30
0.0
 11
277.0
 21
1179.907031999998
 31
0.0
  0
CIRCLE
  5
EE
330
1E
100
AcDbEntity
  8
SIZE
  6
CONTINUOUS
 62
    30
100
AcDbCircle
 10
334.9999999999998
 20
1179.907031999998
 30
0.0
 40
5.0
  0
LINE
  5
EF
330
1E
100
AcDbEntity
  8
SIZE
  6
CONTINUOUS
 62
    30
100
AcDbLine
 10
339.9999999999999
 20
1179.907031999998
 30
0.0
 11
344.9999999999998
 21
1179.907031999998
 31
0.0
  0
TEXT
  5
F0
330
1E
100
AcDbEntity
  8
SIZE
  6
CONTINUOUS
 62
    30
100
AcDbText
 10
374.9999999999999
 20
1199.907031999998
 30
0.0
 40
64.0
  1
48
 41
0.9
 72
     1
 11
421.6285714285714
 21
1199.907031999998
 31
0.0
100
AcDbText
  0
POINT
  5
F1
330
1E
100
AcDbEntity
  8
DEFPOINTS
  6
CONTINUOUS
 62
     7
100
AcDbPoint
 10
287.0
 20
897.0000000000011
 30
0.0
  0
POINT
  5
F2
330
1E
100
AcDbEntity
  8
DEFPOINTS
  6
CONTINUOUS
 62
     7
100
AcDbPoint
 10
334.9999999999998
 20
985.0000000000003
 30
0.0
  0
POINT
  5
F3
330
1E
100
AcDbEntity
  8
DEFPOINTS
  6
CONTINUOUS
 62
     7
100
AcDbPoint
 10
334.9999999999998
 20
1179.907031999998
 30
0.0
  0
LINE
  5
F4
330
1E
100
AcDbEntity
  8
SIZE
  6
CONTINUOUS
 62
    30
100
AcDbLine
 10
-355.0
 20
1009.0
 30
0.0
 11
-354.9999999999998
 21
1499.633812723137
 31
0.0
  0
LINE
  5
F5
330
1E
100
AcDbEntity
  8
SIZE
  6
CONTINUOUS
 62
    30
100
AcDbLine
 10
-335.0
 20
1005.0
 30
0.0
 11
-334.9999999999998
 21
1499.633812723137
 31
0.0
  0
LINE
  5
F6
330
1E
100
AcDbEntity
  8
SIZE
  6
CONTINUOUS
 62
    30
100
AcDbLine
 10
-324.9999999999999
 20
1469.633812723138
 30
0.0
 11
-314.9999999999999
 21
1469.633812723138
 31
0.0
  0
LINE
  5
F7
330
1E
100
AcDbEntity
  8
SIZE
  6
CONTINUOUS
 62
    30
100
AcDbLine
 10
-364.9999999999999
 20
1469.633812723138
 30
0.0
 11
-508.2571428571426
 21
1469.633812723138
 31
0.0
  0
LINE
  5
F8
330
1E
100
AcDbEntity
  8
SIZE
  6
CONTINUOUS
 62
    30
100
AcDbLine
 10
-334.9999999999998
 20
1469.633812723138
 30
0.0
 11
-354.9999999999998
 21
1469.633812723138
 31
0.0
  0
CIRCLE
  5
F9
330
1E
100
AcDbEntity
  8
SIZE
  6
CONTINUOUS
 62
    30
100
AcDbCircle
 10
-334.9999999999998
 20
1469.633812723138
 30
0.0
 40
5.0
  0
LINE
  5
FA
330
1E
100
AcDbEntity
  8
SIZE
  6
CONTINUOUS
 62
    30
100
AcDbLine
 10
-329.9999999999998
 20
1469.633812723138
 30
0.0
 11
-324.9999999999999
 21
1469.633812723138
 31
0.0
  0
CIRCLE
  5
FB
330
1E
100
AcDbEntity
  8
SIZE
  6
CONTINUOUS
 62
    30
100
AcDbCircle
 10
-354.9999999999998
 20
1469.633812723138
 30
0.0
 40
5.0
  0
LINE
  5
FC
330
1E
100
AcDbEntity
  8
SIZE
  6
CONTINUOUS
 62
    30
100
AcDbLine
 10
-359.9999999999998
 20
1469.633812723138
 30
0.0
 11
-364.9999999999999
 21
1469.633812723138
 31
0.0
  0
TEXT
  5
FD
330
1E
100
AcDbEntity
  8
SIZE
  6
CONTINUOUS
 62
    30
100
AcDbText
 10
-488.2571428571426
 20
1489.633812723138
 30
0.0
 40
64.0
  1
20
 41
0.9
 72
     1
 11
-441.6285714285712
 21
1489.633812723138
 31
0.0
100
AcDbText
  0
POINT
  5
FE
330
1E
100
AcDbEntity
  8
DEFPOINTS
  6
CONTINUOUS
 62
     7
100
AcDbPoint
 10
-355.0
 20
989.0000000000004
 30
0.0
  0
POINT
  5
FF
330
1E
100
AcDbEntity
  8
DEFPOINTS
  6
CONTINUOUS
 62
     7
100
AcDbPoint
 10
-335.0
 20
985.0000000000003
 30
0.0
  0
POINT
  5
100
330
1E
100
AcDbEntity
  8
DEFPOINTS
  6
CONTINUOUS
 62
     7
100
AcDbPoint
 10
-334.9999999999998
 20
1469.633812723138
 30
0.0
  0
LINE
  5
101
330
1E
100
AcDbEntity
  8
SIZE
  6
CONTINUOUS
 62
    30
100
AcDbLine
 10
334.9999999999998
 20
1005.0
 30
0.0
 11
335.0
 21
1499.633812723137
 31
0.0
  0
LINE
  5
102
330
1E
100
AcDbEntity
  8
SIZE
  6
CONTINUOUS
 62
    30
100
AcDbLine
 10
354.9999999999998
 20
1009.0
 30
0.0
 11
355.0
 21
1499.633812723137
 31
0.0
  0
LINE
  5
103
330
1E
100
AcDbEntity
  8
SIZE
  6
CONTINUOUS
 62
    30
100
AcDbLine
 10
325.0
 20
1469.633812723138
 30
0.0
 11
315.0
 21
1469.633812723138
 31
0.0
  0
LINE
  5
104
330
1E
100
AcDbEntity
  8
SIZE
  6
CONTINUOUS
 62
    30
100
AcDbLine
 10
365.0
 20
1469.633812723138
 30
0.0
 11
508.2571428571427
 21
1469.633812723138
 31
0.0
  0
LINE
  5
105
330
1E
100
AcDbEntity
  8
SIZE
  6
CONTINUOUS
 62
    30
100
AcDbLine
 10
335.0
 20
1469.633812723138
 30
0.0
 11
355.0
 21
1469.633812723138
 31
0.0
  0
CIRCLE
  5
106
330
1E
100
AcDbEntity
  8
SIZE
  6
CONTINUOUS
 62
    30
100
AcDbCircle
 10
335.0
 20
1469.633812723138
 30
0.0
 40
5.0
  0
LINE
  5
107
330
1E
100
AcDbEntity
  8
SIZE
  6
CONTINUOUS
 62
    30
100
AcDbLine
 10
330.0
 20
1469.633812723138
 30
0.0
 11
325.0
 21
1469.633812723138
 31
0.0
  0
CIRCLE
  5
108
330
1E
100
AcDbEntity
  8
SIZE
  6
CONTINUOUS
 62
    30
100
AcDbCircle
 10
355.0
 20
1469.633812723138
 30
0.0
 40
5.0
  0
LINE
  5
109
330
1E
100
AcDbEntity
  8
SIZE
  6
CONTINUOUS
 62
    30
100
AcDbLine
 10
360.0
 20
1469.633812723138
 30
0.0
 11
365.0
 21
1469.633812723138
 31
0.0
  0
TEXT
  5
10A
330
1E
100
AcDbEntity
  8
SIZE
  6
CONTINUOUS
 62
    30
100
AcDbText
 10
394.9999999999999
 20
1489.633812723138
 30
0.0
 40
64.0
  1
20
 41
0.9
 72
     1
 11
441.6285714285713
 21
1489.633812723138
 31
0.0
100
AcDbText
  0
POINT
  5
10B
330
1E
100
AcDbEntity
  8
DEFPOINTS
  6
CONTINUOUS
 62
     7
100
AcDbPoint
 10
334.9999999999998
 20
985.0000000000003
 30
0.0
  0
POINT
  5
10C
330
1E
100
AcDbEntity
  8
DEFPOINTS
  6
CONTINUOUS
 62
     7
100
AcDbPoint
 10
354.9999999999998
 20
989.0000000000004
 30
0.0
  0
POINT
  5
10D
330
1E
100
AcDbEntity
  8
DEFPOINTS
  6
CONTINUOUS
 62
     7
100
AcDbPoint
 10
355.0
 20
1469.633812723138
 30
0.0
  0
LINE
  5
10E
330
1E
100
AcDbEntity
  8
DETAIL
  6
CONTINUOUS
 62
     5
100
AcDbLine
 10
-262.0
 20
904.0000000000013
 30
0.0
 11
-280.9999999999993
 21
904.0000000000013
 31
0.0
  0
LINE
  5
10F
330
1E
100
AcDbEntity
  8
DETAIL
  6
CONTINUOUS
 62
     5
100
AcDbLine
 10
-292.9999999999994
 20
904.0000000000013
 30
0.0
 11
-312.0
 21
904.0000000000013
 31
0.0
  0
ARC
  5
110
330
1E
100
AcDbEntity
  8
DETAIL
  6
CONTINUOUS
 62
     5
100
AcDbCircle
 10
-294.9999999999993
 20
878.0000000000002
 30
0.0
 40
7.0
100
AcDbArc
 50
90.0
 51
270.0
  0
ARC
  5
111
330
1E
100
AcDbEntity
  8
DETAIL
  6
CONTINUOUS
 62
     5
100
AcDbCircle
 10
-278.9999999999995
 20
878.0000000000002
 30
0.0
 40
7.0
100
AcDbArc
 50
270.0
 51
90.0
  0
LINE
  5
112
330
1E
100
AcDbEntity
  8
DETAIL
  6
CONTINUOUS
 62
     5
100
AcDbLine
 10
-294.9999999999993
 20
871.0000000000004
 30
0.0
 11
-278.9999999999995
 21
871.0000000000004
 31
0.0
  0
LINE
  5
113
330
1E
100
AcDbEntity
  8
DETAIL
  6
CONTINUOUS
 62
     5
100
AcDbLine
 10
-294.9999999999993
 20
885.0000000000003
 30
0.0
 11
-292.9999999999994
 21
885.0000000000003
 31
0.0
  0
LINE
  5
114
330
1E
100
AcDbEntity
  8
DETAIL
  6
CONTINUOUS
 62
     5
100
AcDbLine
 10
-280.9999999999993
 20
885.0000000000003
 30
0.0
 11
-278.9999999999995
 21
885.0000000000003
 31
0.0
  0
LINE
  5
115
330
1E
100
AcDbEntity
  8
DETAIL
  6
CONTINUOUS
 62
     5
100
AcDbLine
 10
281.0000000000012
 20
904.0000000000004
 30
0.0
 11
262.0000000000006
 21
904.0000000000004
 31
0.0
  0
LINE
  5
116
330
1E
100
AcDbEntity
  8
DETAIL
  6
CONTINUOUS
 62
     5
100
AcDbLine
 10
281.0000000000012
 20
904.0000000000004
 30
0.0
 11
281.0000000000012
 21
884.9999999999996
 31
0.0
  0
ARC
  5
117
330
1E
100
AcDbEntity
  8
DETAIL
  6
CONTINUOUS
 62
     5
100
AcDbCircle
 10
279.0000000000012
 20
877.9999999999997
 30
0.0
 40
7.0
100
AcDbArc
 50
90.0
 51
270.0
  0
LINE
  5
118
330
1E
100
AcDbEntity
  8
DETAIL
  6
CONTINUOUS
 62
     5
100
AcDbLine
 10
279.0000000000012
 20
884.9999999999996
 30
0.0
 11
281.0000000000012
 21
884.9999999999996
 31
0.0
  0
LINE
  5
119
330
1E
100
AcDbEntity
  8
DETAIL
  6
CONTINUOUS
 62
     5
100
AcDbLine
 10
279.0000000000012
 20
870.9999999999997
 30
0.0
 11
295.0000000000012
 21
870.9999999999997
 31
0.0
  0
ARC
  5
11A
330
1E
100
AcDbEntity
  8
DETAIL
  6
CONTINUOUS
 62
     5
100
AcDbCircle
 10
295.0000000000012
 20
877.9999999999997
 30
0.0
 40
7.0
100
AcDbArc
 50
270.0
 51
90.0
  0
LINE
  5
11B
330
1E
100
AcDbEntity
  8
DETAIL
  6
CONTINUOUS
 62
     5
100
AcDbLine
 10
293.0000000000012
 20
884.9999999999996
 30
0.0
 11
295.0000000000012
 21
884.9999999999996
 31
0.0
  0
LINE
  5
11C
330
1E
100
AcDbEntity
  8
DETAIL
  6
CONTINUOUS
 62
     5
100
AcDbLine
 10
293.0000000000012
 20
904.0000000000004
 30
0.0
 11
293.0000000000012
 21
884.9999999999996
 31
0.0
  0
LINE
  5
11D
330
1E
100
AcDbEntity
  8
DETAIL
  6
CONTINUOUS
 62
     5
100
AcDbLine
 10
312.0000000000006
 20
904.0000000000004
 30
0.0
 11
293.0000000000012
 21
904.0000000000004
 31
0.0
  0
LINE
  5
11E
330
1E
100
AcDbEntity
  8
DETAIL
  6
CONTINUOUS
 62
     5
100
AcDbLine
 10
-292.9999999999994
 20
-904.0000000000004
 30
0.0
 11
-312.0
 21
-904.0000000000004
 31
0.0
  0
LINE
  5
11F
330
1E
100
AcDbEntity
  8
DETAIL
  6
CONTINUOUS
 62
     5
100
AcDbLine
 10
-292.9999999999994
 20
-904.0000000000004
 30
0.0
 11
-292.9999999999994
 21
-884.9999999999996
 31
0.0
  0
LINE
  5
120
330
1E
100
AcDbEntity
  8
DETAIL
  6
CONTINUOUS
 62
     5
100
AcDbLine
 10
-294.9999999999993
 20
-884.9999999999996
 30
0.0
 11
-292.9999999999994
 21
-884.9999999999996
 31
0.0
  0
ARC
  5
121
330
1E
100
AcDbEntity
  8
DETAIL
  6
CONTINUOUS
 62
     5
100
AcDbCircle
 10
-294.9999999999993
 20
-877.9999999999997
 30
0.0
 40
7.0
100
AcDbArc
 50
90.00000000000005
 51
270.0
  0
LINE
  5
122
330
1E
100
AcDbEntity
  8
DETAIL
  6
CONTINUOUS
 62
     5
100
AcDbLine
 10
-280.9999999999993
 20
-904.0000000000004
 30
0.0
 11
-280.9999999999993
 21
-884.9999999999996
 31
0.0
  0
LINE
  5
123
330
1E
100
AcDbEntity
  8
DETAIL
  6
CONTINUOUS
 62
     5
100
AcDbLine
 10
-280.9999999999993
 20
-884.9999999999996
 30
0.0
 11
-278.9999999999995
 21
-884.9999999999996
 31
0.0
  0
ARC
  5
124
330
1E
100
AcDbEntity
  8
DETAIL
  6
CONTINUOUS
 62
     5
100
AcDbCircle
 10
-278.9999999999995
 20
-877.9999999999997
 30
0.0
 40
7.0
100
AcDbArc
 50
270.0
 51
90.00000000000005
  0
LINE
  5
125
330
1E
100
AcDbEntity
  8
DETAIL
  6
CONTINUOUS
 62
     5
100
AcDbLine
 10
-262.0
 20
-904.0000000000004
 30
0.0
 11
-280.9999999999993
 21
-904.0000000000004
 31
0.0
  0
LINE
  5
126
330
1E
100
AcDbEntity
  8
DETAIL
  6
CONTINUOUS
 62
     5
100
AcDbLine
 10
-294.9999999999993
 20
-870.9999999999997
 30
0.0
 11
-278.9999999999995
 21
-870.9999999999997
 31
0.0
  0
LINE
  5
127
330
1E
100
AcDbEntity
  8
DETAIL
  6
CONTINUOUS
 62
     5
100
AcDbLine
 10
281.0000000000012
 20
-903.9999999999997
 30
0.0
 11
262.0000000000006
 21
-903.9999999999997
 31
0.0
  0
LINE
  5
128
330
1E
100
AcDbEntity
  8
DETAIL
  6
CONTINUOUS
 62
     5
100
AcDbLine
 10
312.0000000000006
 20
-903.9999999999997
 30
0.0
 11
293.0000000000012
 21
-903.9999999999997
 31
0.0
  0
LINE
  5
129
330
1E
100
AcDbEntity
  8
DETAIL
  6
CONTINUOUS
 62
     5
100
AcDbLine
 10
281.0000000000012
 20
-903.9999999999997
 30
0.0
 11
281.0000000000012
 21
-884.999999999999
 31
0.0
  0
LINE
  5
12A
330
1E
100
AcDbEntity
  8
DETAIL
  6
CONTINUOUS
 62
     5
100
AcDbLine
 10
293.0000000000012
 20
-903.9999999999997
 30
0.0
 11
293.0000000000012
 21
-884.999999999999
 31
0.0
  0
ARC
  5
12B
330
1E
100
AcDbEntity
  8
DETAIL
  6
CONTINUOUS
 62
     5
100
AcDbCircle
 10
279.0000000000012
 20
-877.999999999999
 30
0.0
 40
7.0
100
AcDbArc
 50
90.00000000000005
 51
270.0
  0
LINE
  5
12C
330
1E
100
AcDbEntity
  8
DETAIL
  6
CONTINUOUS
 62
     5
100
AcDbLine
 10
279.0000000000012
 20
-884.999999999999
 30
0.0
 11
281.0000000000012
 21
-884.999999999999
 31
0.0
  0
ARC
  5
12D
330
1E
100
AcDbEntity
  8
DETAIL
  6
CONTINUOUS
 62
     5
100
AcDbCircle
 10
295.0000000000012
 20
-877.999999999999
 30
0.0
 40
7.0
100
AcDbArc
 50
270.0
 51
90.00000000000005
  0
LINE
  5
12E
330
1E
100
AcDbEntity
  8
DETAIL
  6
CONTINUOUS
 62
     5
100
AcDbLine
 10
293.0000000000012
 20
-884.999999999999
 30
0.0
 11
295.0000000000012
 21
-884.999999999999
 31
0.0
  0
LINE
  5
12F
330
1E
100
AcDbEntity
  8
DETAIL
  6
CONTINUOUS
 62
     5
100
AcDbLine
 10
279.0000000000012
 20
-870.999999999999
 30
0.0
 11
295.0000000000012
 21
-870.999999999999
 31
0.0
  0
LINE
  5
130
330
1E
100
AcDbEntity
  8
DETAIL
  6
CONTINUOUS
 62
     5
100
AcDbLine
 10
-160.5000000000014
 20
-883.9999999999985
 30
0.0
 11
-160.5000000000014
 21
-853.9999999999988
 31
0.0
  0
LINE
  5
131
330
1E
100
AcDbEntity
  8
DETAIL
  6
CONTINUOUS
 62
     5
100
AcDbLine
 10
-185.5000000000013
 20
-883.9999999999985
 30
0.0
 11
-185.5000000000013
 21
-853.9999999999988
 31
0.0
  0
LINE
  5
132
330
1E
100
AcDbEntity
  8
DETAIL
  6
CONTINUOUS
 62
     5
100
AcDbLine
 10
-185.5000000000013
 20
-883.9999999999985
 30
0.0
 11
-160.5000000000014
 21
-883.9999999999985
 31
0.0
  0
LINE
  5
133
330
1E
100
AcDbEntity
  8
NOTE
  6
CONTINUOUS
 62
     4
100
AcDbLine
 10
81.00000000000205
 20
-854.0000000000008
 30
0.0
 11
694.5758287328051
 21
-1408.199310798119
 31
0.0
  0
LWPOLYLINE
  5
134
330
1E
100
AcDbEntity
  8
NOTE
  6
CONTINUOUS
 62
     4
100
AcDbPolyline
 90
        3
 70
     0
 43
0.0
 10
116.7158974420567
 20
-872.0104040069355
 10
81.0000000000025
 20
-854.0000000000004
 10
102.9256723570739
 20
-887.4554158651887
  0
LINE
  5
139
330
1E
100
AcDbEntity
  8
DETAIL
  6
CONTINUOUS
 62
     5
100
AcDbLine
 10
47.06
 20
-923.999999999997
 30
0.0
 11
47.06
 21
-853.9999999999988
 31
0.0
  0
LINE
  5
13A
330
1E
100
AcDbEntity
  8
DETAIL
  6
CONTINUOUS
 62
     5
100
AcDbLine
 10
62.94
 20
-923.999999999997
 30
0.0
 11
62.94
 21
-853.9999999999988
 31
0.0
  0
LINE
  5
13B
330
1E
100
AcDbEntity
  8
DETAIL
  6
CONTINUOUS
 62
     5
100
AcDbLine
 10
129.7599999999999
 20
-911.0000000000001
 30
0.0
 11
129.7599999999999
 21
-853.9999999999988
 31
0.0
  0
LINE
  5
13C
330
1E
100
AcDbEntity
  8
DETAIL
  6
CONTINUOUS
 62
     5
100
AcDbLine
 10
120.2399999999999
 20
-911.0000000000001
 30
0.0
 11
120.2399999999999
 21
-853.9999999999988
 31
0.0
  0
LINE
  5
13D
330
1E
100
AcDbEntity
  8
DETAIL
  6
CONTINUOUS
 62
     5
100
AcDbLine
 10
120.2399999999999
 20
-911.0
 30
0.0
 11
129.7599999999999
 21
-911.0000000000001
 31
0.0
  0
LINE
  5
13E
330
1E
100
AcDbEntity
  8
DETAIL
  6
CONTINUOUS
 62
     5
100
AcDbLine
 10
47.06
 20
-923.999999999997
 30
0.0
 11
62.94
 21
-923.999999999997
 31
0.0
  0
LINE
  5
13F
330
1E
100
AcDbEntity
  8
NOTE
  6
CONTINUOUS
 62
     4
100
AcDbLine
 10
679.4201655534716
 20
1254.5193060284
 30
0.0
 11
1345.680360553471
 21
1254.5193060284
 31
0.0
  0
TEXT
  5
140
330
1E
100
AcDbEntity
  8
NOTE
  6
CONTINUOUS
 62
     4
100
AcDbText
 10
753.0257045478149
 20
1281.42006187358
 30
0.0
 40
64.0
  1
AH 4-14X30
 41
0.9
100
AcDbText
  0
LINE
  5
141
330
1E
100
AcDbEntity
  8
DETAIL
  6
CONTINUOUS
 62
     5
100
AcDbLine
 10
10.0
 20
-967.9999999999987
 30
0.0
 11
-128.0
 21
-967.9999999999987
 31
0.0
  0
LINE
  5
142
330
1E
100
AcDbEntity
  8
DETAIL
  6
CONTINUOUS
 62
     5
100
AcDbLine
 10
-128.0
 20
-967.9999999999987
 30
0.0
 11
-128.0
 21
-853.9999999999983
 31
0.0
  0
LINE
  5
143
330
1E
100
AcDbEntity
  8
SIZE
  6
CONTINUOUS
 62
    30
100
AcDbLine
 10
281.0000000000012
 20
923.0000000000003
 30
0.0
 11
281.0000000000012
 21
1079.69426148207
 31
0.0
  0
LINE
  5
144
330
1E
100
AcDbEntity
  8
SIZE
  6
CONTINUOUS
 62
    30
100
AcDbLine
 10
293.0000000000012
 20
923.0000000000003
 30
0.0
 11
293.0000000000012
 21
1079.69426148207
 31
0.0
  0
LINE
  5
145
330
1E
100
AcDbEntity
  8
SIZE
  6
CONTINUOUS
 62
    30
100
AcDbLine
 10
303.000000000001
 20
1049.69426148207
 30
0.0
 11
313.000000000001
 21
1049.69426148207
 31
0.0
  0
LINE
  5
146
330
1E
100
AcDbEntity
  8
SIZE
  6
CONTINUOUS
 62
    30
100
AcDbLine
 10
271.0000000000011
 20
1049.69426148207
 30
0.0
 11
138.7142857142869
 21
1049.69426148207
 31
0.0
  0
LINE
  5
147
330
1E
100
AcDbEntity
  8
SIZE
  6
CONTINUOUS
 62
    30
100
AcDbLine
 10
293.0000000000012
 20
1049.69426148207
 30
0.0
 11
281.0000000000012
 21
1049.69426148207
 31
0.0
  0
CIRCLE
  5
148
330
1E
100
AcDbEntity
  8
SIZE
  6
CONTINUOUS
 62
    30
100
AcDbCircle
 10
293.0000000000012
 20
1049.69426148207
 30
0.0
 40
5.0
  0
LINE
  5
149
330
1E
100
AcDbEntity
  8
SIZE
  6
CONTINUOUS
 62
    30
100
AcDbLine
 10
298.0000000000011
 20
1049.69426148207
 30
0.0
 11
303.0000000000011
 21
1049.69426148207
 31
0.0
  0
CIRCLE
  5
14A
330
1E
100
AcDbEntity
  8
SIZE
  6
CONTINUOUS
 62
    30
100
AcDbCircle
 10
281.0000000000012
 20
1049.69426148207
 30
0.0
 40
5.0
  0
LINE
  5
14B
330
1E
100
AcDbEntity
  8
SIZE
  6
CONTINUOUS
 62
    30
100
AcDbLine
 10
276.0000000000011
 20
1049.69426148207
 30
0.0
 11
271.0000000000011
 21
1049.69426148207
 31
0.0
  0
TEXT
  5
14C
330
1E
100
AcDbEntity
  8
SIZE
  6
CONTINUOUS
 62
    30
100
AcDbText
 10
158.7142857142868
 20
1069.69426148207
 30
0.0
 40
64.0
  1
12
 41
0.9
 72
     1
 11
199.857142857144
 21
1069.69426148207
 31
0.0
100
AcDbText
  0
POINT
  5
14D
330
1E
100
AcDbEntity
  8
DEFPOINTS
  6
CONTINUOUS
 62
     7
100
AcDbPoint
 10
281.0000000000012
 20
903.0000000000001
 30
0.0
  0
POINT
  5
14E
330
1E
100
AcDbEntity
  8
DEFPOINTS
  6
CONTINUOUS
 62
     7
100
AcDbPoint
 10
293.0000000000012
 20
903.0000000000001
 30
0.0
  0
POINT
  5
14F
330
1E
100
AcDbEntity
  8
DEFPOINTS
  6
CONTINUOUS
 62
     7
100
AcDbPoint
 10
293.0000000000012
 20
1049.69426148207
 30
0.0
  0
LINE
  5
150
330
1E
100
AcDbEntity
  8
SIZE
  6
CONTINUOUS
 62
    30
100
AcDbLine
 10
272.0000000000012
 20
857.000000000001
 30
0.0
 11
272.0000000000012
 21
690.5732163493325
 31
0.0
  0
LINE
  5
151
330
1E
100
AcDbEntity
  8
SIZE
  6
CONTINUOUS
 62
    30
100
AcDbLine
 10
302.0000000000012
 20
856.9999999999991
 30
0.0
 11
302.0000000000012
 21
690.5732163493325
 31
0.0
  0
LINE
  5
152
330
1E
100
AcDbEntity
  8
SIZE
  6
CONTINUOUS
 62
    30
100
AcDbLine
 10
262.0000000000012
 20
720.5732163493324
 30
0.0
 11
252.0000000000012
 21
720.5732163493324
 31
0.0
  0
LINE
  5
153
330
1E
100
AcDbEntity
  8
SIZE
  6
CONTINUOUS
 62
    30
100
AcDbLine
 10
312.0000000000012
 20
720.5732163493324
 30
0.0
 11
500.1928988058607
 21
720.5732163493324
 31
0.0
  0
LINE
  5
154
330
1E
100
AcDbEntity
  8
SIZE
  6
CONTINUOUS
 62
    30
100
AcDbLine
 10
272.0000000000012
 20
720.5732163493324
 30
0.0
 11
302.0000000000012
 21
720.5732163493324
 31
0.0
  0
CIRCLE
  5
155
330
1E
100
AcDbEntity
  8
SIZE
  6
CONTINUOUS
 62
    30
100
AcDbCircle
 10
272.0000000000012
 20
720.5732163493324
 30
0.0
 40
5.0
  0
LINE
  5
156
330
1E
100
AcDbEntity
  8
SIZE
  6
CONTINUOUS
 62
    30
100
AcDbLine
 10
267.0000000000011
 20
720.5732163493324
 30
0.0
 11
262.0000000000012
 21
720.5732163493324
 31
0.0
  0
CIRCLE
  5
157
330
1E
100
AcDbEntity
  8
SIZE
  6
CONTINUOUS
 62
    30
100
AcDbCircle
 10
302.0000000000012
 20
720.5732163493324
 30
0.0
 40
5.0
  0
LINE
  5
158
330
1E
100
AcDbEntity
  8
SIZE
  6
CONTINUOUS
 62
    30
100
AcDbLine
 10
307.0000000000011
 20
720.5732163493324
 30
0.0
 11
312.0000000000012
 21
720.5732163493324
 31
0.0
  0
TEXT
  5
159
330
1E
100
AcDbEntity
  8
SIZE
  6
CONTINUOUS
 62
    30
100
AcDbText
 10
386.9357559487179
 20
740.5732163493325
 30
0.0
 40
64.0
  1
30
 41
0.9
 72
     1
 11
433.5643273772894
 21
740.5732163493325
 31
0.0
100
AcDbText
  0
POINT
  5
15A
330
1E
100
AcDbEntity
  8
DEFPOINTS
  6
CONTINUOUS
 62
     7
100
AcDbPoint
 10
272.0000000000012
 20
877.0000000000012
 30
0.0
  0
POINT
  5
15B
330
1E
100
AcDbEntity
  8
DEFPOINTS
  6
CONTINUOUS
 62
     7
100
AcDbPoint
 10
302.0000000000012
 20
876.9999999999992
 30
0.0
  0
POINT
  5
15C
330
1E
100
AcDbEntity
  8
DEFPOINTS
  6
CONTINUOUS
 62
     7
100
AcDbPoint
 10
302.0000000000012
 20
720.5732163493324
 30
0.0
  0
LINE
  5
15D
330
1E
100
AcDbEntity
  8
SIZE
  6
CONTINUOUS
 62
    30
100
AcDbLine
 10
315.0000000000011
 20
884.9999999999996
 30
0.0
 11
644.3673777938295
 21
884.9999999999996
 31
0.0
  0
LINE
  5
15E
330
1E
100
AcDbEntity
  8
SIZE
  6
CONTINUOUS
 62
    30
100
AcDbLine
 10
315.0000000000011
 20
870.9999999999997
 30
0.0
 11
644.3673777938295
 21
870.9999999999997
 31
0.0
  0
LINE
  5
15F
330
1E
100
AcDbEntity
  8
SIZE
  6
CONTINUOUS
 62
    30
100
AcDbLine
 10
614.3673777938295
 20
894.9999999999997
 30
0.0
 11
614.3673777938295
 21
904.9999999999997
 31
0.0
  0
LINE
  5
160
330
1E
100
AcDbEntity
  8
SIZE
  6
CONTINUOUS
 62
    30
100
AcDbLine
 10
614.3673777938295
 20
860.9999999999997
 30
0.0
 11
614.3673777938293
 21
660.6883452648635
 31
0.0
  0
LINE
  5
161
330
1E
100
AcDbEntity
  8
SIZE
  6
CONTINUOUS
 62
    30
100
AcDbLine
 10
614.3673777938295
 20
884.9999999999996
 30
0.0
 11
614.3673777938295
 21
870.9999999999997
 31
0.0
  0
CIRCLE
  5
162
330
1E
100
AcDbEntity
  8
SIZE
  6
CONTINUOUS
 62
    30
100
AcDbCircle
 10
614.3673777938295
 20
884.9999999999996
 30
0.0
 40
5.0
  0
LINE
  5
163
330
1E
100
AcDbEntity
  8
SIZE
  6
CONTINUOUS
 62
    30
100
AcDbLine
 10
614.3673777938295
 20
889.9999999999995
 30
0.0
 11
614.3673777938295
 21
894.9999999999995
 31
0.0
  0
CIRCLE
  5
164
330
1E
100
AcDbEntity
  8
SIZE
  6
CONTINUOUS
 62
    30
100
AcDbCircle
 10
614.3673777938295
 20
870.9999999999997
 30
0.0
 40
5.0
  0
LINE
  5
165
330
1E
100
AcDbEntity
  8
SIZE
  6
CONTINUOUS
 62
    30
100
AcDbLine
 10
614.3673777938295
 20
865.9999999999996
 30
0.0
 11
614.3673777938295
 21
860.9999999999997
 31
0.0
  0
TEXT
  5
166
330
1E
100
AcDbEntity
  8
SIZE
  6
CONTINUOUS
 62
    30
100
AcDbText
 10
594.3673777938292
 20
680.6883452648637
 30
0.0
 40
64.0
  1
14
 50
90.0
 41
0.9
 72
     1
 11
594.3673777938292
 21
723.2026309791494
 31
0.0
100
AcDbText
  0
POINT
  5
167
330
1E
100
AcDbEntity
  8
DEFPOINTS
  6
CONTINUOUS
 62
     7
100
AcDbPoint
 10
295.0000000000012
 20
884.9999999999996
 30
0.0
  0
POINT
  5
168
330
1E
100
AcDbEntity
  8
DEFPOINTS
  6
CONTINUOUS
 62
     7
100
AcDbPoint
 10
295.0000000000012
 20
870.9999999999997
 30
0.0
  0
POINT
  5
169
330
1E
100
AcDbEntity
  8
DEFPOINTS
  6
CONTINUOUS
 62
     7
100
AcDbPoint
 10
614.3673777938295
 20
870.9999999999997
 30
0.0
  0
TEXT
  5
16A
330
1E
100
AcDbEntity
  8
NOTE
  6
CONTINUOUS
 62
     4
100
AcDbText
 10
-317.0000107657329
 20
600.9333857934283
 30
0.0
 40
64.0
  1
Ceiling opening
 41
0.9
100
AcDbText
  0
LINE
  5
16B
330
1E
100
AcDbEntity
  8
SIZE
  6
CONTINUOUS
 62
    30
100
AcDbLine
 10
-230.0
 20
-883.9999999999985
 30
0.0
 11
-553.5321931788549
 21
-883.9999999999983
 31
0.0
  0
LINE
  5
16C
330
1E
100
AcDbEntity
  8
SIZE
  6
CONTINUOUS
 62
    30
100
AcDbLine
 10
-337.0
 20
-853.9999999999988
 30
0.0
 11
-553.5321931788549
 21
-853.9999999999988
 31
0.0
  0
LINE
  5
16D
330
1E
100
AcDbEntity
  8
SIZE
  6
CONTINUOUS
 62
    30
100
AcDbLine
 10
-523.5321931788551
 20
-893.9999999999983
 30
0.0
 11
-523.5321931788551
 21
-903.9999999999983
 31
0.0
  0
LINE
  5
16E
330
1E
100
AcDbEntity
  8
SIZE
  6
CONTINUOUS
 62
    30
100
AcDbLine
 10
-523.5321931788551
 20
-843.9999999999987
 30
0.0
 11
-523.5321931788548
 21
-667.9020026258325
 31
0.0
  0
LINE
  5
16F
330
1E
100
AcDbEntity
  8
SIZE
  6
CONTINUOUS
 62
    30
100
AcDbLine
 10
-523.5321931788551
 20
-883.9999999999983
 30
0.0
 11
-523.5321931788551
 21
-853.9999999999988
 31
0.0
  0
CIRCLE
  5
170
330
1E
100
AcDbEntity
  8
SIZE
  6
CONTINUOUS
 62
    30
100
AcDbCircle
 10
-523.5321931788551
 20
-883.9999999999983
 30
0.0
 40
5.0
  0
LINE
  5
171
330
1E
100
AcDbEntity
  8
SIZE
  6
CONTINUOUS
 62
    30
100
AcDbLine
 10
-523.5321931788551
 20
-888.9999999999982
 30
0.0
 11
-523.5321931788551
 21
-893.9999999999983
 31
0.0
  0
CIRCLE
  5
172
330
1E
100
AcDbEntity
  8
SIZE
  6
CONTINUOUS
 62
    30
100
AcDbCircle
 10
-523.5321931788551
 20
-853.9999999999988
 30
0.0
 40
5.0
  0
LINE
  5
173
330
1E
100
AcDbEntity
  8
SIZE
  6
CONTINUOUS
 62
    30
100
AcDbLine
 10
-523.5321931788551
 20
-848.9999999999987
 30
0.0
 11
-523.5321931788551
 21
-843.9999999999987
 31
0.0
  0
TEXT
  5
174
330
1E
100
AcDbEntity
  8
SIZE
  6
CONTINUOUS
 62
    30
100
AcDbText
 10
-543.5321931788548
 20
-781.1591454829755
 30
0.0
 40
64.0
  1
30
 50
90.0
 41
0.9
 72
     1
 11
-543.5321931788548
 21
-734.5305740544041
 31
0.0
100
AcDbText
  0
POINT
  5
175
330
1E
100
AcDbEntity
  8
DEFPOINTS
  6
CONTINUOUS
 62
     7
100
AcDbPoint
 10
-210.0
 20
-883.9999999999985
 30
0.0
  0
POINT
  5
176
330
1E
100
AcDbEntity
  8
DEFPOINTS
  6
CONTINUOUS
 62
     7
100
AcDbPoint
 10
-317.0
 20
-853.9999999999988
 30
0.0
  0
POINT
  5
177
330
1E
100
AcDbEntity
  8
DEFPOINTS
  6
CONTINUOUS
 62
     7
100
AcDbPoint
 10
-523.5321931788551
 20
-853.9999999999988
 30
0.0
  0
LINE
  5
178
330
1E
100
AcDbEntity
  8
NOTE
  6
CONTINUOUS
 62
     4
100
AcDbLine
 10
-303.0
 20
-17.99999999999624
 30
0.0
 11
-303.0
 21
22.00000000000376
 31
0.0
  0
LINE
  5
179
330
1E
100
AcDbEntity
  8
NOTE
  6
CONTINUOUS
 62
     4
100
AcDbLine
 10
-323.0
 20
2.000000000003764
 30
0.0
 11
-283.0
 21
2.000000000003764
 31
0.0
  0
LINE
  5
17A
330
1E
100
AcDbEntity
  8
NOTE
  6
CONTINUOUS
 62
     4
100
AcDbLine
 10
-302.9999999999988
 20
2.000000000000738
 30
0.0
 11
-446.0290194847523
 21
175.0810088791141
 31
0.0
  0
LWPOLYLINE
  5
17B
330
1E
100
AcDbEntity
  8
NOTE
  6
CONTINUOUS
 62
     4
100
AcDbPolyline
 90
        3
 70
     0
 43
0.0
 10
-319.7269475231999
 20
38.33468392618328
 10
-302.9999999999986
 20
2.000000000000284
 10
-335.6533031141196
 20
25.10328453335573
  0
TEXT
  5
180
330
1E
100
AcDbEntity
  8
NOTE
  6
CONTINUOUS
 62
     4
100
AcDbText
 10
-698.205804796262
 20
199.6552048330017
 30
0.0
 40
64.0
  1
%%c200
 41
0.9
100
AcDbText
  0
LINE
  5
181
330
1E
100
AcDbEntity
  8
NOTE
  6
CONTINUOUS
 62
     4
100
AcDbLine
 10
-772.289214484752
 20
175.0810088791141
 30
0.0
 11
-446.0290194847523
 21
175.0810088791141
 31
0.0
  0
LINE
  5
182
330
1E
100
AcDbEntity
  8
DETAIL
  6
CONTINUOUS
 62
     5
100
AcDbLine
 10
303.0
 20
-853.9999999999984
 30
0.0
 11
302.9999999999998
 21
854.0000000000013
 31
0.0
  0
LINE
  5
183
330
1E
100
AcDbEntity
  8
DETAIL
  6
CONTINUOUS
 62
     5
100
AcDbLine
 10
-303.0
 20
-853.9999999999984
 30
0.0
 11
-302.9999999999998
 21
854.0000000000013
 31
0.0
  0
LINE
  5
184
330
1E
100
AcDbEntity
  8
SIZE
  6
CONTINUOUS
 62
    30
100
AcDbLine
 10
-303.0
 20
-872.9999999999987
 30
0.0
 11
-303.0
 21
-1761.899009999999
 31
0.0
  0
LINE
  5
185
330
1E
100
AcDbEntity
  8
SIZE
  6
CONTINUOUS
 62
    30
100
AcDbLine
 10
303.0
 20
-872.9999999999986
 30
0.0
 11
302.9999999999998
 21
-1761.899009999999
 31
0.0
  0
LINE
  5
186
330
1E
100
AcDbEntity
  8
SIZE
  6
CONTINUOUS
 62
    30
100
AcDbLine
 10
-293.0
 20
-1731.899009999999
 30
0.0
 11
292.9999999999998
 21
-1731.899009999999
 31
0.0
  0
CIRCLE
  5
187
330
1E
100
AcDbEntity
  8
SIZE
  6
CONTINUOUS
 62
    30
100
AcDbCircle
 10
-303.0
 20
-1731.899009999999
 30
0.0
 40
5.0
  0
LINE
  5
188
330
1E
100
AcDbEntity
  8
SIZE
  6
CONTINUOUS
 62
    30
100
AcDbLine
 10
-298.0
 20
-1731.899009999999
 30
0.0
 11
-293.0
 21
-1731.899009999999
 31
0.0
  0
CIRCLE
  5
189
330
1E
100
AcDbEntity
  8
SIZE
  6
CONTINUOUS
 62
    30
100
AcDbCircle
 10
302.9999999999998
 20
-1731.899009999999
 30
0.0
 40
5.0
  0
LINE
  5
18A
330
1E
100
AcDbEntity
  8
SIZE
  6
CONTINUOUS
 62
    30
100
AcDbLine
 10
297.9999999999999
 20
-1731.899009999999
 30
0.0
 11
292.9999999999998
 21
-1731.899009999999
 31
0.0
  0
TEXT
  5
18B
330
1E
100
AcDbEntity
  8
SIZE
  6
CONTINUOUS
 62
    30
100
AcDbText
 10
-72.68571428571434
 20
-1711.899009999999
 30
0.0
 40
64.0
  1
606
 41
0.9
 72
     1
 11
-0.0000000000000568
 21
-1711.899009999999
 31
0.0
100
AcDbText
  0
POINT
  5
18C
330
1E
100
AcDbEntity
  8
DEFPOINTS
  6
CONTINUOUS
 62
     7
100
AcDbPoint
 10
-303.0
 20
-852.9999999999985
 30
0.0
  0
POINT
  5
18D
330
1E
100
AcDbEntity
  8
DEFPOINTS
  6
CONTINUOUS
 62
     7
100
AcDbPoint
 10
303.0
 20
-852.9999999999985
 30
0.0
  0
POINT
  5
18E
330
1E
100
AcDbEntity
  8
DEFPOINTS
  6
CONTINUOUS
 62
     7
100
AcDbPoint
 10
302.9999999999998
 20
-1731.899009999999
 30
0.0
  0
LINE
  5
18F
330
1E
100
AcDbEntity
  8
NOTE
  6
CONTINUOUS
 62
     4
100
AcDbLine
 10
81.0
 20
-873.9999999999987
 30
0.0
 11
81.0
 21
-833.9999999999987
 31
0.0
  0
LINE
  5
190
330
1E
100
AcDbEntity
  8
NOTE
  6
CONTINUOUS
 62
     4
100
AcDbLine
 10
61.0
 20
-853.9999999999988
 30
0.0
 11
101.0
 21
-853.9999999999988
 31
0.0
  0
LINE
  5
191
330
1E
100
AcDbEntity
  8
NOTE
  6
CONTINUOUS
 62
     4
100
AcDbLine
 10
125.0
 20
-930.9999999999988
 30
0.0
 11
125.0
 21
-890.9999999999987
 31
0.0
  0
LINE
  5
192
330
1E
100
AcDbEntity
  8
NOTE
  6
CONTINUOUS
 62
     4
100
AcDbLine
 10
105.0
 20
-910.9999999999985
 30
0.0
 11
145.0
 21
-910.9999999999985
 31
0.0
  0
LINE
  5
193
330
1E
100
AcDbEntity
  8
NOTE
  6
CONTINUOUS
 62
     4
100
AcDbLine
 10
55.0
 20
-943.9999999999987
 30
0.0
 11
55.0
 21
-903.9999999999988
 31
0.0
  0
LINE
  5
194
330
1E
100
AcDbEntity
  8
NOTE
  6
CONTINUOUS
 62
     4
100
AcDbLine
 10
35.0
 20
-923.9999999999987
 30
0.0
 11
75.0
 21
-923.9999999999987
 31
0.0
  0
LINE
  5
195
330
1E
100
AcDbEntity
  8
SIZE
  6
CONTINUOUS
 62
    30
100
AcDbLine
 10
303.0
 20
-872.9999999999986
 30
0.0
 11
303.0
 21
-1185.66906923636
 31
0.0
  0
LINE
  5
196
330
1E
100
AcDbEntity
  8
SIZE
  6
CONTINUOUS
 62
    30
100
AcDbLine
 10
125.0
 20
-949.9999999999987
 30
0.0
 11
124.9999999999999
 21
-1185.66906923636
 31
0.0
  0
LINE
  5
197
330
1E
100
AcDbEntity
  8
SIZE
  6
CONTINUOUS
 62
    30
100
AcDbLine
 10
293.0
 20
-1155.66906923636
 30
0.0
 11
135.0
 21
-1155.66906923636
 31
0.0
  0
CIRCLE
  5
198
330
1E
100
AcDbEntity
  8
SIZE
  6
CONTINUOUS
 62
    30
100
AcDbCircle
 10
303.0
 20
-1155.66906923636
 30
0.0
 40
5.0
  0
LINE
  5
199
330
1E
100
AcDbEntity
  8
SIZE
  6
CONTINUOUS
 62
    30
100
AcDbLine
 10
298.0
 20
-1155.66906923636
 30
0.0
 11
293.0
 21
-1155.66906923636
 31
0.0
  0
CIRCLE
  5
19A
330
1E
100
AcDbEntity
  8
SIZE
  6
CONTINUOUS
 62
    30
100
AcDbCircle
 10
124.9999999999999
 20
-1155.66906923636
 30
0.0
 40
5.0
  0
LINE
  5
19B
330
1E
100
AcDbEntity
  8
SIZE
  6
CONTINUOUS
 62
    30
100
AcDbLine
 10
129.9999999999998
 20
-1155.66906923636
 30
0.0
 11
134.9999999999998
 21
-1155.66906923636
 31
0.0
  0
TEXT
  5
19C
330
1E
100
AcDbEntity
  8
SIZE
  6
CONTINUOUS
 62
    30
100
AcDbText
 10
145.4285714285714
 20
-1135.66906923636
 30
0.0
 40
64.0
  1
178
 41
0.9
 72
     1
 11
214.0
 21
-1135.66906923636
 31
0.0
100
AcDbText
  0
POINT
  5
19D
330
1E
100
AcDbEntity
  8
DEFPOINTS
  6
CONTINUOUS
 62
     7
100
AcDbPoint
 10
303.0
 20
-852.9999999999985
 30
0.0
  0
POINT
  5
19E
330
1E
100
AcDbEntity
  8
DEFPOINTS
  6
CONTINUOUS
 62
     7
100
AcDbPoint
 10
125.0
 20
-929.9999999999988
 30
0.0
  0
POINT
  5
19F
330
1E
100
AcDbEntity
  8
DEFPOINTS
  6
CONTINUOUS
 62
     7
100
AcDbPoint
 10
124.9999999999999
 20
-1155.66906923636
 30
0.0
  0
LINE
  5
1A0
330
1E
100
AcDbEntity
  8
SIZE
  6
CONTINUOUS
 62
    30
100
AcDbLine
 10
125.0
 20
-949.9999999999987
 30
0.0
 11
124.9999999999999
 21
-1185.66906923636
 31
0.0
  0
LINE
  5
1A1
330
1E
100
AcDbEntity
  8
SIZE
  6
CONTINUOUS
 62
    30
100
AcDbLine
 10
55.0
 20
-962.9999999999988
 30
0.0
 11
55.0
 21
-1185.66906923636
 31
0.0
  0
LINE
  5
1A2
330
1E
100
AcDbEntity
  8
SIZE
  6
CONTINUOUS
 62
    30
100
AcDbLine
 10
114.9999999999999
 20
-1155.66906923636
 30
0.0
 11
64.99999999999999
 21
-1155.66906923636
 31
0.0
  0
LINE
  5
1A3
330
1E
100
AcDbEntity
  8
SIZE
  6
CONTINUOUS
 62
    30
100
AcDbLine
 10
55.0
 20
-1155.66906923636
 30
0.0
 11
-88.2571428571429
 21
-1155.66906923636
 31
0.0
  0
CIRCLE
  5
1A4
330
1E
100
AcDbEntity
  8
SIZE
  6
CONTINUOUS
 62
    30
100
AcDbCircle
 10
124.9999999999999
 20
-1155.66906923636
 30
0.0
 40
5.0
  0
LINE
  5
1A5
330
1E
100
AcDbEntity
  8
SIZE
  6
CONTINUOUS
 62
    30
100
AcDbLine
 10
119.9999999999999
 20
-1155.66906923636
 30
0.0
 11
114.9999999999999
 21
-1155.66906923636
 31
0.0
  0
CIRCLE
  5
1A6
330
1E
100
AcDbEntity
  8
SIZE
  6
CONTINUOUS
 62
    30
100
AcDbCircle
 10
55.0
 20
-1155.66906923636
 30
0.0
 40
5.0
  0
LINE
  5
1A7
330
1E
100
AcDbEntity
  8
SIZE
  6
CONTINUOUS
 62
    30
100
AcDbLine
 10
60.0
 20
-1155.66906923636
 30
0.0
 11
65.0
 21
-1155.66906923636
 31
0.0
  0
TEXT
  5
1A8
330
1E
100
AcDbEntity
  8
SIZE
  6
CONTINUOUS
 62
    30
100
AcDbText
 10
-68.25714285714287
 20
-1135.66906923636
 30
0.0
 40
64.0
  1
70
 41
0.9
 72
     1
 11
-21.62857142857144
 21
-1135.66906923636
 31
0.0
100
AcDbText
  0
POINT
  5
1A9
330
1E
100
AcDbEntity
  8
DEFPOINTS
  6
CONTINUOUS
 62
     7
100
AcDbPoint
 10
125.0
 20
-929.9999999999988
 30
0.0
  0
POINT
  5
1AA
330
1E
100
AcDbEntity
  8
DEFPOINTS
  6
CONTINUOUS
 62
     7
100
AcDbPoint
 10
55.0
 20
-942.9999999999987
 30
0.0
  0
POINT
  5
1AB
330
1E
100
AcDbEntity
  8
DEFPOINTS
  6
CONTINUOUS
 62
     7
100
AcDbPoint
 10
55.0
 20
-1155.66906923636
 30
0.0
  0
LINE
  5
1AC
330
1E
100
AcDbEntity
  8
SIZE
  6
CONTINUOUS
 62
    30
100
AcDbLine
 10
331.9999999999998
 20
-853.9999999999988
 30
0.0
 11
522.8106386124506
 21
-853.9999999999988
 31
0.0
  0
LINE
  5
1AD
330
1E
100
AcDbEntity
  8
SIZE
  6
CONTINUOUS
 62
    30
100
AcDbLine
 10
165.0
 20
-910.9999999999985
 30
0.0
 11
522.8106386124506
 21
-910.9999999999986
 31
0.0
  0
LINE
  5
1AE
330
1E
100
AcDbEntity
  8
SIZE
  6
CONTINUOUS
 62
    30
100
AcDbLine
 10
492.8106386124506
 20
-920.9999999999988
 30
0.0
 11
492.8106386124506
 21
-930.9999999999988
 31
0.0
  0
LINE
  5
1AF
330
1E
100
AcDbEntity
  8
SIZE
  6
CONTINUOUS
 62
    30
100
AcDbLine
 10
492.8106386124506
 20
-843.9999999999987
 30
0.0
 11
492.8106386124506
 21
-700.7428571428556
 31
0.0
  0
LINE
  5
1B0
330
1E
100
AcDbEntity
  8
SIZE
  6
CONTINUOUS
 62
    30
100
AcDbLine
 10
492.8106386124506
 20
-910.9999999999986
 30
0.0
 11
492.8106386124506
 21
-853.9999999999988
 31
0.0
  0
CIRCLE
  5
1B1
330
1E
100
AcDbEntity
  8
SIZE
  6
CONTINUOUS
 62
    30
100
AcDbCircle
 10
492.8106386124506
 20
-910.9999999999986
 30
0.0
 40
5.0
  0
LINE
  5
1B2
330
1E
100
AcDbEntity
  8
SIZE
  6
CONTINUOUS
 62
    30
100
AcDbLine
 10
492.8106386124506
 20
-915.9999999999987
 30
0.0
 11
492.8106386124506
 21
-920.9999999999988
 31
0.0
  0
CIRCLE
  5
1B3
330
1E
100
AcDbEntity
  8
SIZE
  6
CONTINUOUS
 62
    30
100
AcDbCircle
 10
492.8106386124506
 20
-853.9999999999988
 30
0.0
 40
5.0
  0
LINE
  5
1B4
330
1E
100
AcDbEntity
  8
SIZE
  6
CONTINUOUS
 62
    30
100
AcDbLine
 10
492.8106386124506
 20
-848.9999999999987
 30
0.0
 11
492.8106386124506
 21
-843.9999999999987
 31
0.0
  0
TEXT
  5
1B5
330
1E
100
AcDbEntity
  8
SIZE
  6
CONTINUOUS
 62
    30
100
AcDbText
 10
472.8106386124506
 20
-813.9999999999986
 30
0.0
 40
64.0
  1
57
 50
90.0
 41
0.9
 72
     1
 11
472.8106386124506
 21
-767.3714285714273
 31
0.0
100
AcDbText
  0
POINT
  5
1B6
330
1E
100
AcDbEntity
  8
DEFPOINTS
  6
CONTINUOUS
 62
     7
100
AcDbPoint
 10
311.9999999999998
 20
-853.9999999999988
 30
0.0
  0
POINT
  5
1B7
330
1E
100
AcDbEntity
  8
DEFPOINTS
  6
CONTINUOUS
 62
     7
100
AcDbPoint
 10
145.0
 20
-910.9999999999985
 30
0.0
  0
POINT
  5
1B8
330
1E
100
AcDbEntity
  8
DEFPOINTS
  6
CONTINUOUS
 62
     7
100
AcDbPoint
 10
492.8106386124506
 20
-910.9999999999986
 30
0.0
  0
LINE
  5
1B9
330
1E
100
AcDbEntity
  8
SIZE
  6
CONTINUOUS
 62
    30
100
AcDbLine
 10
331.9999999999998
 20
-853.9999999999988
 30
0.0
 11
647.0487812071966
 21
-853.9999999999988
 31
0.0
  0
LINE
  5
1BA
330
1E
100
AcDbEntity
  8
SIZE
  6
CONTINUOUS
 62
    30
100
AcDbLine
 10
95.0
 20
-923.9999999999987
 30
0.0
 11
647.0487812071966
 21
-923.9999999999987
 31
0.0
  0
LINE
  5
1BB
330
1E
100
AcDbEntity
  8
SIZE
  6
CONTINUOUS
 62
    30
100
AcDbLine
 10
617.0487812071966
 20
-913.9999999999988
 30
0.0
 11
617.0487812071966
 21
-863.9999999999988
 31
0.0
  0
LINE
  5
1BC
330
1E
100
AcDbEntity
  8
SIZE
  6
CONTINUOUS
 62
    30
100
AcDbLine
 10
617.0487812071966
 20
-853.9999999999988
 30
0.0
 11
617.0487812071967
 21
-710.7428571428559
 31
0.0
  0
CIRCLE
  5
1BD
330
1E
100
AcDbEntity
  8
SIZE
  6
CONTINUOUS
 62
    30
100
AcDbCircle
 10
617.0487812071966
 20
-923.9999999999987
 30
0.0
 40
5.0
  0
LINE
  5
1BE
330
1E
100
AcDbEntity
  8
SIZE
  6
CONTINUOUS
 62
    30
100
AcDbLine
 10
617.0487812071966
 20
-918.9999999999987
 30
0.0
 11
617.0487812071966
 21
-913.9999999999988
 31
0.0
  0
CIRCLE
  5
1BF
330
1E
100
AcDbEntity
  8
SIZE
  6
CONTINUOUS
 62
    30
100
AcDbCircle
 10
617.0487812071966
 20
-853.9999999999988
 30
0.0
 40
5.0
  0
LINE
  5
1C0
330
1E
100
AcDbEntity
  8
SIZE
  6
CONTINUOUS
 62
    30
100
AcDbLine
 10
617.0487812071966
 20
-858.9999999999987
 30
0.0
 11
617.0487812071966
 21
-863.9999999999988
 31
0.0
  0
TEXT
  5
1C1
330
1E
100
AcDbEntity
  8
SIZE
  6
CONTINUOUS
 62
    30
100
AcDbText
 10
597.0487812071967
 20
-823.9999999999984
 30
0.0
 40
64.0
  1
70
 50
90.0
 41
0.9
 72
     1
 11
597.0487812071967
 21
-777.371428571427
 31
0.0
100
AcDbText
  0
POINT
  5
1C2
330
1E
100
AcDbEntity
  8
DEFPOINTS
  6
CONTINUOUS
 62
     7
100
AcDbPoint
 10
311.9999999999998
 20
-853.9999999999988
 30
0.0
  0
POINT
  5
1C3
330
1E
100
AcDbEntity
  8
DEFPOINTS
  6
CONTINUOUS
 62
     7
100
AcDbPoint
 10
75.0
 20
-923.9999999999987
 30
0.0
  0
POINT
  5
1C4
330
1E
100
AcDbEntity
  8
DEFPOINTS
  6
CONTINUOUS
 62
     7
100
AcDbPoint
 10
617.0487812071966
 20
-923.9999999999987
 30
0.0
  0
LINE
  5
1C5
330
1E
100
AcDbEntity
  8
NOTE
  6
CONTINUOUS
 62
     4
100
AcDbLine
 10
-50.0
 20
-967.9999999999987
 30
0.0
 11
-10.0
 21
-967.9999999999987
 31
0.0
  0
LINE
  5
1C6
330
1E
100
AcDbEntity
  8
NOTE
  6
CONTINUOUS
 62
     4
100
AcDbLine
 10
-30.0
 20
-987.9999999999988
 30
0.0
 11
-30.0
 21
-947.9999999999987
 31
0.0
  0
LINE
  5
1C7
330
1E
100
AcDbEntity
  8
NOTE
  6
CONTINUOUS
 62
     4
100
AcDbLine
 10
-100.0
 20
-987.9999999999988
 30
0.0
 11
-100.0
 21
-947.9999999999987
 31
0.0
  0
LINE
  5
1C8
330
1E
100
AcDbEntity
  8
NOTE
  6
CONTINUOUS
 62
     4
100
AcDbLine
 10
-120.0
 20
-967.9999999999987
 30
0.0
 11
-80.0
 21
-967.9999999999987
 31
0.0
  0
LINE
  5
1C9
330
1E
100
AcDbEntity
  8
SIZE
  6
CONTINUOUS
 62
    30
100
AcDbLine
 10
303.0
 20
-872.9999999999986
 30
0.0
 11
302.9999999999998
 21
-1329.893537999998
 31
0.0
  0
LINE
  5
1CA
330
1E
100
AcDbEntity
  8
SIZE
  6
CONTINUOUS
 62
    30
100
AcDbLine
 10
-30.0
 20
-1006.999999999998
 30
0.0
 11
-30.00000000000001
 21
-1329.893537999998
 31
0.0
  0
LINE
  5
1CB
330
1E
100
AcDbEntity
  8
SIZE
  6
CONTINUOUS
 62
    30
100
AcDbLine
 10
293.0
 20
-1299.893538
 30
0.0
 11
-20.0
 21
-1299.893538
 31
0.0
  0
CIRCLE
  5
1CC
330
1E
100
AcDbEntity
  8
SIZE
  6
CONTINUOUS
 62
    30
100
AcDbCircle
 10
303.0
 20
-1299.893538
 30
0.0
 40
5.0
  0
LINE
  5
1CD
330
1E
100
AcDbEntity
  8
SIZE
  6
CONTINUOUS
 62
    30
100
AcDbLine
 10
298.0
 20
-1299.893538
 30
0.0
 11
293.0
 21
-1299.893538
 31
0.0
  0
CIRCLE
  5
1CE
330
1E
100
AcDbEntity
  8
SIZE
  6
CONTINUOUS
 62
    30
100
AcDbCircle
 10
-30.00000000000001
 20
-1299.893538
 30
0.0
 40
5.0
  0
LINE
  5
1CF
330
1E
100
AcDbEntity
  8
SIZE
  6
CONTINUOUS
 62
    30
100
AcDbLine
 10
-25.00000000000001
 20
-1299.893538
 30
0.0
 11
-20.0
 21
-1299.893538
 31
0.0
  0
TEXT
  5
1D0
330
1E
100
AcDbEntity
  8
SIZE
  6
CONTINUOUS
 62
    30
100
AcDbText
 10
62.44285714285701
 20
-1279.893537999998
 30
0.0
 40
64.0
  1
333
 41
0.9
 72
     1
 11
136.4999999999998
 21
-1279.893537999998
 31
0.0
100
AcDbText
  0
POINT
  5
1D1
330
1E
100
AcDbEntity
  8
DEFPOINTS
  6
CONTINUOUS
 62
     7
100
AcDbPoint
 10
303.0
 20
-852.9999999999985
 30
0.0
  0
POINT
  5
1D2
330
1E
100
AcDbEntity
  8
DEFPOINTS
  6
CONTINUOUS
 62
     7
100
AcDbPoint
 10
-30.0
 20
-986.9999999999988
 30
0.0
  0
POINT
  5
1D3
330
1E
100
AcDbEntity
  8
DEFPOINTS
  6
CONTINUOUS
 62
     7
100
AcDbPoint
 10
-30.00000000000001
 20
-1299.893538
 30
0.0
  0
LINE
  5
1D4
330
1E
100
AcDbEntity
  8
SIZE
  6
CONTINUOUS
 62
    30
100
AcDbLine
 10
-30.0
 20
-1006.999999999998
 30
0.0
 11
-30.00000000000001
 21
-1329.893537999998
 31
0.0
  0
LINE
  5
1D5
330
1E
100
AcDbEntity
  8
SIZE
  6
CONTINUOUS
 62
    30
100
AcDbLine
 10
-100.0
 20
-1006.999999999998
 30
0.0
 11
-100.0
 21
-1329.893537999998
 31
0.0
  0
LINE
  5
1D6
330
1E
100
AcDbEntity
  8
SIZE
  6
CONTINUOUS
 62
    30
100
AcDbLine
 10
-20.0
 20
-1299.893538
 30
0.0
 11
-10.00000000000001
 21
-1299.893538
 31
0.0
  0
LINE
  5
1D7
330
1E
100
AcDbEntity
  8
SIZE
  6
CONTINUOUS
 62
    30
100
AcDbLine
 10
-110.0
 20
-1299.893538
 30
0.0
 11
-120.0
 21
-1299.893538
 31
0.0
  0
LINE
  5
1D8
330
1E
100
AcDbEntity
  8
SIZE
  6
CONTINUOUS
 62
    30
100
AcDbLine
 10
-30.00000000000001
 20
-1299.893538
 30
0.0
 11
-100.0
 21
-1299.893538
 31
0.0
  0
CIRCLE
  5
1D9
330
1E
100
AcDbEntity
  8
SIZE
  6
CONTINUOUS
 62
    30
100
AcDbCircle
 10
-30.00000000000001
 20
-1299.893538
 30
0.0
 40
5.0
  0
LINE
  5
1DA
330
1E
100
AcDbEntity
  8
SIZE
  6
CONTINUOUS
 62
    30
100
AcDbLine
 10
-25.00000000000001
 20
-1299.893538
 30
0.0
 11
-20.0
 21
-1299.893538
 31
0.0
  0
CIRCLE
  5
1DB
330
1E
100
AcDbEntity
  8
SIZE
  6
CONTINUOUS
 62
    30
100
AcDbCircle
 10
-100.0
 20
-1299.893538
 30
0.0
 40
5.0
  0
LINE
  5
1DC
330
1E
100
AcDbEntity
  8
SIZE
  6
CONTINUOUS
 62
    30
100
AcDbLine
 10
-105.0
 20
-1299.893538
 30
0.0
 11
-110.0
 21
-1299.893538
 31
0.0
  0
TEXT
  5
1DD
330
1E
100
AcDbEntity
  8
SIZE
  6
CONTINUOUS
 62
    30
100
AcDbText
 10
-111.6285714285714
 20
-1279.893537999998
 30
0.0
 40
64.0
  1
70
 41
0.9
 72
     1
 11
-65.0
 21
-1279.893537999998
 31
0.0
100
AcDbText
  0
POINT
  5
1DE
330
1E
100
AcDbEntity
  8
DEFPOINTS
  6
CONTINUOUS
 62
     7
100
AcDbPoint
 10
-30.0
 20
-986.9999999999988
 30
0.0
  0
POINT
  5
1DF
330
1E
100
AcDbEntity
  8
DEFPOINTS
  6
CONTINUOUS
 62
     7
100
AcDbPoint
 10
-100.0
 20
-986.9999999999988
 30
0.0
  0
POINT
  5
1E0
330
1E
100
AcDbEntity
  8
DEFPOINTS
  6
CONTINUOUS
 62
     7
100
AcDbPoint
 10
-100.0
 20
-1299.893538
 30
0.0
  0
LINE
  5
1E1
330
1E
100
AcDbEntity
  8
NOTE
  6
CONTINUOUS
 62
     4
100
AcDbLine
 10
-173.0
 20
-903.9999999999988
 30
0.0
 11
-173.0
 21
-863.9999999999988
 31
0.0
  0
LINE
  5
1E2
330
1E
100
AcDbEntity
  8
NOTE
  6
CONTINUOUS
 62
     4
100
AcDbLine
 10
-193.0
 20
-883.9999999999987
 30
0.0
 11
-153.0
 21
-883.9999999999987
 31
0.0
  0
LINE
  5
1E3
330
1E
100
AcDbEntity
  8
SIZE
  6
CONTINUOUS
 62
    30
100
AcDbLine
 10
303.0
 20
-872.9999999999986
 30
0.0
 11
302.9999999999998
 21
-1482.82075
 31
0.0
  0
LINE
  5
1E4
330
1E
100
AcDbEntity
  8
SIZE
  6
CONTINUOUS
 62
    30
100
AcDbLine
 10
81.0
 20
-892.9999999999987
 30
0.0
 11
80.99999999999996
 21
-1482.82075
 31
0.0
  0
LINE
  5
1E5
330
1E
100
AcDbEntity
  8
SIZE
  6
CONTINUOUS
 62
    30
100
AcDbLine
 10
292.9999999999998
 20
-1452.82075
 30
0.0
 11
90.99999999999996
 21
-1452.82075
 31
0.0
  0
CIRCLE
  5
1E6
330
1E
100
AcDbEntity
  8
SIZE
  6
CONTINUOUS
 62
    30
100
AcDbCircle
 10
302.9999999999998
 20
-1452.82075
 30
0.0
 40
5.0
  0
LINE
  5
1E7
330
1E
100
AcDbEntity
  8
SIZE
  6
CONTINUOUS
 62
    30
100
AcDbLine
 10
297.9999999999999
 20
-1452.82075
 30
0.0
 11
292.9999999999998
 21
-1452.82075
 31
0.0
  0
CIRCLE
  5
1E8
330
1E
100
AcDbEntity
  8
SIZE
  6
CONTINUOUS
 62
    30
100
AcDbCircle
 10
80.99999999999997
 20
-1452.82075
 30
0.0
 40
5.0
  0
LINE
  5
1E9
330
1E
100
AcDbEntity
  8
SIZE
  6
CONTINUOUS
 62
    30
100
AcDbLine
 10
85.99999999999996
 20
-1452.82075
 30
0.0
 11
90.99999999999996
 21
-1452.82075
 31
0.0
  0
TEXT
  5
1EA
330
1E
100
AcDbEntity
  8
SIZE
  6
CONTINUOUS
 62
    30
100
AcDbText
 10
117.942857142857
 20
-1432.82075
 30
0.0
 40
64.0
  1
222
 41
0.9
 72
     1
 11
191.9999999999998
 21
-1432.82075
 31
0.0
100
AcDbText
  0
POINT
  5
1EB
330
1E
100
AcDbEntity
  8
DEFPOINTS
  6
CONTINUOUS
 62
     7
100
AcDbPoint
 10
303.0
 20
-852.9999999999985
 30
0.0
  0
POINT
  5
1EC
330
1E
100
AcDbEntity
  8
DEFPOINTS
  6
CONTINUOUS
 62
     7
100
AcDbPoint
 10
81.0
 20
-872.9999999999987
 30
0.0
  0
POINT
  5
1ED
330
1E
100
AcDbEntity
  8
DEFPOINTS
  6
CONTINUOUS
 62
     7
100
AcDbPoint
 10
80.99999999999997
 20
-1452.82075
 30
0.0
  0
LINE
  5
1EE
330
1E
100
AcDbEntity
  8
SIZE
  6
CONTINUOUS
 62
    30
100
AcDbLine
 10
-173.0
 20
-922.9999999999987
 30
0.0
 11
-173.0
 21
-1625.207999999998
 31
0.0
  0
LINE
  5
1EF
330
1E
100
AcDbEntity
  8
SIZE
  6
CONTINUOUS
 62
    30
100
AcDbLine
 10
303.0
 20
-872.9999999999986
 30
0.0
 11
302.9999999999998
 21
-1625.207999999998
 31
0.0
  0
LINE
  5
1F0
330
1E
100
AcDbEntity
  8
SIZE
  6
CONTINUOUS
 62
    30
100
AcDbLine
 10
-163.0
 20
-1595.208
 30
0.0
 11
292.9999999999998
 21
-1595.208
 31
0.0
  0
CIRCLE
  5
1F1
330
1E
100
AcDbEntity
  8
SIZE
  6
CONTINUOUS
 62
    30
100
AcDbCircle
 10
-173.0
 20
-1595.208
 30
0.0
 40
5.0
  0
LINE
  5
1F2
330
1E
100
AcDbEntity
  8
SIZE
  6
CONTINUOUS
 62
    30
100
AcDbLine
 10
-168.0
 20
-1595.208
 30
0.0
 11
-163.0
 21
-1595.208
 31
0.0
  0
CIRCLE
  5
1F3
330
1E
100
AcDbEntity
  8
SIZE
  6
CONTINUOUS
 62
    30
100
AcDbCircle
 10
302.9999999999998
 20
-1595.208
 30
0.0
 40
5.0
  0
LINE
  5
1F4
330
1E
100
AcDbEntity
  8
SIZE
  6
CONTINUOUS
 62
    30
100
AcDbLine
 10
297.9999999999999
 20
-1595.208
 30
0.0
 11
292.9999999999998
 21
-1595.208
 31
0.0
  0
TEXT
  5
1F5
330
1E
100
AcDbEntity
  8
SIZE
  6
CONTINUOUS
 62
    30
100
AcDbText
 10
-7.685714285714325
 20
-1575.208
 30
0.0
 40
64.0
  1
476
 41
0.9
 72
     1
 11
64.99999999999996
 21
-1575.208
 31
0.0
100
AcDbText
  0
POINT
  5
1F6
330
1E
100
AcDbEntity
  8
DEFPOINTS
  6
CONTINUOUS
 62
     7
100
AcDbPoint
 10
-173.0
 20
-902.9999999999985
 30
0.0
  0
POINT
  5
1F7
330
1E
100
AcDbEntity
  8
DEFPOINTS
  6
CONTINUOUS
 62
     7
100
AcDbPoint
 10
303.0
 20
-852.9999999999985
 30
0.0
  0
POINT
  5
1F8
330
1E
100
AcDbEntity
  8
DEFPOINTS
  6
CONTINUOUS
 62
     7
100
AcDbPoint
 10
302.9999999999998
 20
-1595.208
 30
0.0
  0
LINE
  5
1F9
330
1E
100
AcDbEntity
  8
SERVICESPACE
  6
DASHDOT
 62
     2
100
AcDbLine
 10
-334.9999999999998
 20
-984.9999999999996
 30
0.0
 11
335.0
 21
985.0
 31
0.0
  0
LINE
  5
1FA
330
1E
100
AcDbEntity
  8
SERVICESPACE
  6
DASHDOT
 62
     2
100
AcDbLine
 10
-335.0
 20
985.0
 30
0.0
 11
334.9999999999998
 21
-984.9999999999996
 31
0.0
  0
LINE
  5
1FB
330
1E
100
AcDbEntity
  8
SIZE
  6
CONTINUOUS
 62
    30
100
AcDbLine
 10
-354.9999999999998
 20
-984.9999999999996
 30
0.0
 11
-849.7089385941874
 21
-984.9999999999996
 31
0.0
  0
LINE
  5
1FC
330
1E
100
AcDbEntity
  8
SIZE
  6
CONTINUOUS
 62
    30
100
AcDbLine
 10
-355.0
 20
985.0000000000003
 30
0.0
 11
-849.7089385941873
 21
985.0000000000003
 31
0.0
  0
LINE
  5
1FD
330
1E
100
AcDbEntity
  8
SIZE
  6
CONTINUOUS
 62
    30
100
AcDbLine
 10
-819.7089385941874
 20
-974.9999999999996
 30
0.0
 11
-819.7089385941868
 21
975.0000000000003
 31
0.0
  0
CIRCLE
  5
1FE
330
1E
100
AcDbEntity
  8
SIZE
  6
CONTINUOUS
 62
    30
100
AcDbCircle
 10
-819.7089385941874
 20
-984.9999999999996
 30
0.0
 40
5.0
  0
LINE
  5
1FF
330
1E
100
AcDbEntity
  8
SIZE
  6
CONTINUOUS
 62
    30
100
AcDbLine
 10
-819.7089385941874
 20
-979.9999999999997
 30
0.0
 11
-819.7089385941874
 21
-974.9999999999996
 31
0.0
  0
CIRCLE
  5
200
330
1E
100
AcDbEntity
  8
SIZE
  6
CONTINUOUS
 62
    30
100
AcDbCircle
 10
-819.7089385941868
 20
985.0000000000003
 30
0.0
 40
5.0
  0
LINE
  5
201
330
1E
100
AcDbEntity
  8
SIZE
  6
CONTINUOUS
 62
    30
100
AcDbLine
 10
-819.7089385941868
 20
980.0000000000004
 30
0.0
 11
-819.7089385941868
 21
975.0000000000003
 31
0.0
  0
TEXT
  5
202
330
1E
100
AcDbEntity
  8
SIZE
  6
CONTINUOUS
 62
    30
100
AcDbText
 10
-839.7089385941873
 20
-95.99999999999971
 30
0.0
 40
64.0
  1
1970
 50
90.0
 41
0.9
 72
     1
 11
-839.7089385941873
 21
0.0000000000002819
 31
0.0
100
AcDbText
  0
POINT
  5
203
330
1E
100
AcDbEntity
  8
DEFPOINTS
  6
CONTINUOUS
 62
     7
100
AcDbPoint
 10
-334.9999999999998
 20
-984.9999999999996
 30
0.0
  0
POINT
  5
204
330
1E
100
AcDbEntity
  8
DEFPOINTS
  6
CONTINUOUS
 62
     7
100
AcDbPoint
 10
-335.0
 20
985.0000000000003
 30
0.0
  0
POINT
  5
205
330
1E
100
AcDbEntity
  8
DEFPOINTS
  6
CONTINUOUS
 62
     7
100
AcDbPoint
 10
-819.7089385941868
 20
985.0000000000003
 30
0.0
  0
LINE
  5
206
330
1E
100
AcDbEntity
  8
SIZE
  6
CONTINUOUS
 62
    30
100
AcDbLine
 10
354.9999999999998
 20
984.9999999999996
 30
0.0
 11
1279.882061852944
 21
984.9999999999994
 31
0.0
  0
LINE
  5
207
330
1E
100
AcDbEntity
  8
SIZE
  6
CONTINUOUS
 62
    30
100
AcDbLine
 10
327.0
 20
878.000000000001
 30
0.0
 11
1279.882061852944
 21
878.000000000001
 31
0.0
  0
LINE
  5
208
330
1E
100
AcDbEntity
  8
SIZE
  6
CONTINUOUS
 62
    30
100
AcDbLine
 10
1249.882061852944
 20
888.0000000000009
 30
0.0
 11
1249.882061852944
 21
974.9999999999996
 31
0.0
  0
LINE
  5
209
330
1E
100
AcDbEntity
  8
SIZE
  6
CONTINUOUS
 62
    30
100
AcDbLine
 10
1249.882061852944
 20
984.9999999999996
 30
0.0
 11
1249.882061852944
 21
1172.142857142856
 31
0.0
  0
CIRCLE
  5
20A
330
1E
100
AcDbEntity
  8
SIZE
  6
CONTINUOUS
 62
    30
100
AcDbCircle
 10
1249.882061852944
 20
878.000000000001
 30
0.0
 40
5.0
  0
LINE
  5
20B
330
1E
100
AcDbEntity
  8
SIZE
  6
CONTINUOUS
 62
    30
100
AcDbLine
 10
1249.882061852944
 20
883.000000000001
 30
0.0
 11
1249.882061852944
 21
888.0000000000009
 31
0.0
  0
CIRCLE
  5
20C
330
1E
100
AcDbEntity
  8
SIZE
  6
CONTINUOUS
 62
    30
100
AcDbCircle
 10
1249.882061852944
 20
984.9999999999996
 30
0.0
 40
5.0
  0
LINE
  5
20D
330
1E
100
AcDbEntity
  8
SIZE
  6
CONTINUOUS
 62
    30
100
AcDbLine
 10
1249.882061852944
 20
979.9999999999997
 30
0.0
 11
1249.882061852944
 21
974.9999999999996
 31
0.0
  0
TEXT
  5
20E
330
1E
100
AcDbEntity
  8
SIZE
  6
CONTINUOUS
 62
    30
100
AcDbText
 10
1229.882061852944
 20
1014.999999999999
 30
0.0
 40
64.0
  1
107
 50
90.0
 41
0.9
 72
     1
 11
1229.882061852944
 21
1083.571428571427
 31
0.0
100
AcDbText
  0
POINT
  5
20F
330
1E
100
AcDbEntity
  8
DEFPOINTS
  6
CONTINUOUS
 62
     7
100
AcDbPoint
 10
334.9999999999998
 20
984.9999999999996
 30
0.0
  0
POINT
  5
210
330
1E
100
AcDbEntity
  8
DEFPOINTS
  6
CONTINUOUS
 62
     7
100
AcDbPoint
 10
307.0
 20
878.000000000001
 30
0.0
  0
POINT
  5
211
330
1E
100
AcDbEntity
  8
DEFPOINTS
  6
CONTINUOUS
 62
     7
100
AcDbPoint
 10
1249.882061852944
 20
878.000000000001
 30
0.0
  0
LINE
  5
212
330
1E
100
AcDbEntity
  8
SIZE
  6
CONTINUOUS
 62
    30
100
AcDbLine
 10
326.9999999999999
 20
-877.9999999999985
 30
0.0
 11
1279.882061852944
 21
-877.9999999999985
 31
0.0
  0
LINE
  5
213
330
1E
100
AcDbEntity
  8
SIZE
  6
CONTINUOUS
 62
    30
100
AcDbLine
 10
354.9999999999998
 20
-984.9999999999996
 30
0.0
 11
1279.882061852944
 21
-985.0
 31
0.0
  0
LINE
  5
214
330
1E
100
AcDbEntity
  8
SIZE
  6
CONTINUOUS
 62
    30
100
AcDbLine
 10
1249.882061852944
 20
-887.9999999999988
 30
0.0
 11
1249.882061852944
 21
-974.9999999999996
 31
0.0
  0
LINE
  5
215
330
1E
100
AcDbEntity
  8
SIZE
  6
CONTINUOUS
 62
    30
100
AcDbLine
 10
1249.882061852944
 20
-984.9999999999996
 30
0.0
 11
1249.882061852944
 21
-1172.142857142857
 31
0.0
  0
CIRCLE
  5
216
330
1E
100
AcDbEntity
  8
SIZE
  6
CONTINUOUS
 62
    30
100
AcDbCircle
 10
1249.882061852944
 20
-877.9999999999985
 30
0.0
 40
5.0
  0
LINE
  5
217
330
1E
100
AcDbEntity
  8
SIZE
  6
CONTINUOUS
 62
    30
100
AcDbLine
 10
1249.882061852944
 20
-882.9999999999985
 30
0.0
 11
1249.882061852944
 21
-887.9999999999984
 31
0.0
  0
CIRCLE
  5
218
330
1E
100
AcDbEntity
  8
SIZE
  6
CONTINUOUS
 62
    30
100
AcDbCircle
 10
1249.882061852944
 20
-984.9999999999996
 30
0.0
 40
5.0
  0
LINE
  5
219
330
1E
100
AcDbEntity
  8
SIZE
  6
CONTINUOUS
 62
    30
100
AcDbLine
 10
1249.882061852944
 20
-979.9999999999997
 30
0.0
 11
1249.882061852944
 21
-974.9999999999996
 31
0.0
  0
TEXT
  5
21A
330
1E
100
AcDbEntity
  8
SIZE
  6
CONTINUOUS
 62
    30
100
AcDbText
 10
1229.882061852944
 20
-1152.142857142856
 30
0.0
 40
64.0
  1
107
 50
90.0
 41
0.9
 72
     1
 11
1229.882061852944
 21
-1083.571428571427
 31
0.0
100
AcDbText
  0
POINT
  5
21B
330
1E
100
AcDbEntity
  8
DEFPOINTS
  6
CONTINUOUS
 62
     7
100
AcDbPoint
 10
306.9999999999998
 20
-877.9999999999985
 30
0.0
  0
POINT
  5
21C
330
1E
100
AcDbEntity
  8
DEFPOINTS
  6
CONTINUOUS
 62
     7
100
AcDbPoint
 10
334.9999999999998
 20
-984.9999999999996
 30
0.0
  0
POINT
  5
21D
330
1E
100
AcDbEntity
  8
DEFPOINTS
  6
CONTINUOUS
 62
     7
100
AcDbPoint
 10
1249.882061852944
 20
-984.9999999999996
 30
0.0
  0
LINE
  5
21E
330
1E
100
AcDbEntity
  8
SIZE
  6
CONTINUOUS
 62
    30
100
AcDbLine
 10
327.0
 20
878.000000000001
 30
0.0
 11
1279.882061852944
 21
878.000000000001
 31
0.0
  0
LINE
  5
21F
330
1E
100
AcDbEntity
  8
SIZE
  6
CONTINUOUS
 62
    30
100
AcDbLine
 10
326.9999999999999
 20
-877.9999999999985
 30
0.0
 11
1279.882061852944
 21
-877.9999999999985
 31
0.0
  0
LINE
  5
220
330
1E
100
AcDbEntity
  8
SIZE
  6
CONTINUOUS
 62
    30
100
AcDbLine
 10
1249.882061852944
 20
868.0000000000008
 30
0.0
 11
1249.882061852944
 21
-867.9999999999987
 31
0.0
  0
CIRCLE
  5
221
330
1E
100
AcDbEntity
  8
SIZE
  6
CONTINUOUS
 62
    30
100
AcDbCircle
 10
1249.882061852944
 20
878.000000000001
 30
0.0
 40
5.0
  0
LINE
  5
222
330
1E
100
AcDbEntity
  8
SIZE
  6
CONTINUOUS
 62
    30
100
AcDbLine
 10
1249.882061852944
 20
873.0000000000011
 30
0.0
 11
1249.882061852944
 21
868.000000000001
 31
0.0
  0
CIRCLE
  5
223
330
1E
100
AcDbEntity
  8
SIZE
  6
CONTINUOUS
 62
    30
100
AcDbCircle
 10
1249.882061852944
 20
-877.9999999999985
 30
0.0
 40
5.0
  0
LINE
  5
224
330
1E
100
AcDbEntity
  8
SIZE
  6
CONTINUOUS
 62
    30
100
AcDbLine
 10
1249.882061852944
 20
-872.9999999999986
 30
0.0
 11
1249.882061852944
 21
-867.9999999999985
 31
0.0
  0
TEXT
  5
225
330
1E
100
AcDbEntity
  8
SIZE
  6
CONTINUOUS
 62
    30
100
AcDbText
 10
1229.882061852944
 20
-94.62857142857018
 30
0.0
 40
64.0
  1
1756
 50
90.0
 41
0.9
 72
     1
 11
1229.882061852944
 21
0.0000000000012352
 31
0.0
100
AcDbText
  0
POINT
  5
226
330
1E
100
AcDbEntity
  8
DEFPOINTS
  6
CONTINUOUS
 62
     7
100
AcDbPoint
 10
307.0
 20
878.000000000001
 30
0.0
  0
POINT
  5
227
330
1E
100
AcDbEntity
  8
DEFPOINTS
  6
CONTINUOUS
 62
     7
100
AcDbPoint
 10
306.9999999999998
 20
-877.9999999999985
 30
0.0
  0
POINT
  5
228
330
1E
100
AcDbEntity
  8
DEFPOINTS
  6
CONTINUOUS
 62
     7
100
AcDbPoint
 10
1249.882061852944
 20
-877.9999999999985
 30
0.0
  0
LINE
  5
229
330
1E
100
AcDbEntity
  8
SIZE
  6
CONTINUOUS
 62
    30
100
AcDbLine
 10
358.9999999999998
 20
1005.0
 30
0.0
 11
1161.009694905444
 21
1005.0
 31
0.0
  0
LINE
  5
22A
330
1E
100
AcDbEntity
  8
SIZE
  6
CONTINUOUS
 62
    30
100
AcDbLine
 10
358.9999999999998
 20
-1004.999999999999
 30
0.0
 11
1161.009694905444
 21
-1004.999999999999
 31
0.0
  0
LINE
  5
22B
330
1E
100
AcDbEntity
  8
SIZE
  6
CONTINUOUS
 62
    30
100
AcDbLine
 10
1131.009694905444
 20
995.0000000000001
 30
0.0
 11
1131.009694905442
 21
-994.9999999999997
 31
0.0
  0
CIRCLE
  5
22C
330
1E
100
AcDbEntity
  8
SIZE
  6
CONTINUOUS
 62
    30
100
AcDbCircle
 10
1131.009694905444
 20
1005.0
 30
0.0
 40
5.0
  0
LINE
  5
22D
330
1E
100
AcDbEntity
  8
SIZE
  6
CONTINUOUS
 62
    30
100
AcDbLine
 10
1131.009694905444
 20
1000.0
 30
0.0
 11
1131.009694905444
 21
995.0
 31
0.0
  0
CIRCLE
  5
22E
330
1E
100
AcDbEntity
  8
SIZE
  6
CONTINUOUS
 62
    30
100
AcDbCircle
 10
1131.009694905442
 20
-1004.999999999999
 30
0.0
 40
5.0
  0
LINE
  5
22F
330
1E
100
AcDbEntity
  8
SIZE
  6
CONTINUOUS
 62
    30
100
AcDbLine
 10
1131.009694905442
 20
-999.9999999999987
 30
0.0
 11
1131.009694905442
 21
-994.9999999999986
 31
0.0
  0
TEXT
  5
230
330
1E
100
AcDbEntity
  8
SIZE
  6
CONTINUOUS
 62
    30
100
AcDbText
 10
1111.009694905444
 20
-95.9999999999996
 30
0.0
 40
64.0
  1
2010
 50
90.0
 41
0.9
 72
     1
 11
1111.009694905444
 21
0.0000000000003899
 31
0.0
100
AcDbText
  0
POINT
  5
231
330
1E
100
AcDbEntity
  8
DEFPOINTS
  6
CONTINUOUS
 62
     7
100
AcDbPoint
 10
338.9999999999998
 20
1005.0
 30
0.0
  0
POINT
  5
232
330
1E
100
AcDbEntity
  8
DEFPOINTS
  6
CONTINUOUS
 62
     7
100
AcDbPoint
 10
338.9999999999998
 20
-1004.999999999999
 30
0.0
  0
POINT
  5
233
330
1E
100
AcDbEntity
  8
DEFPOINTS
  6
CONTINUOUS
 62
     7
100
AcDbPoint
 10
1131.009694905442
 20
-1004.999999999999
 30
0.0
  0
LINE
  5
234
330
1E
100
AcDbEntity
  8
SIZE
  6
CONTINUOUS
 62
    30
100
AcDbLine
 10
332.0
 20
854.0000000000013
 30
0.0
 11
1030.250082444913
 21
854.0000000000009
 31
0.0
  0
LINE
  5
235
330
1E
100
AcDbEntity
  8
SIZE
  6
CONTINUOUS
 62
    30
100
AcDbLine
 10
332.0
 20
-853.9999999999988
 30
0.0
 11
1030.250082444913
 21
-853.9999999999988
 31
0.0
  0
LINE
  5
236
330
1E
100
AcDbEntity
  8
SIZE
  6
CONTINUOUS
 62
    30
100
AcDbLine
 10
1000.250082444914
 20
844.000000000001
 30
0.0
 11
1000.250082444914
 21
-843.9999999999987
 31
0.0
  0
CIRCLE
  5
237
330
1E
100
AcDbEntity
  8
SIZE
  6
CONTINUOUS
 62
    30
100
AcDbCircle
 10
1000.250082444914
 20
854.0000000000009
 30
0.0
 40
5.0
  0
LINE
  5
238
330
1E
100
AcDbEntity
  8
SIZE
  6
CONTINUOUS
 62
    30
100
AcDbLine
 10
1000.250082444914
 20
849.000000000001
 30
0.0
 11
1000.250082444914
 21
844.000000000001
 31
0.0
  0
CIRCLE
  5
239
330
1E
100
AcDbEntity
  8
SIZE
  6
CONTINUOUS
 62
    30
100
AcDbCircle
 10
1000.250082444914
 20
-853.9999999999988
 30
0.0
 40
5.0
  0
LINE
  5
23A
330
1E
100
AcDbEntity
  8
SIZE
  6
CONTINUOUS
 62
    30
100
AcDbLine
 10
1000.250082444914
 20
-848.9999999999987
 30
0.0
 11
1000.250082444914
 21
-843.9999999999987
 31
0.0
  0
TEXT
  5
23B
330
1E
100
AcDbEntity
  8
SIZE
  6
CONTINUOUS
 62
    30
100
AcDbText
 10
980.2500824449142
 20
-95.99999999999869
 30
0.0
 40
64.0
  1
1708
 50
90.0
 41
0.9
 72
     1
 11
980.2500824449142
 21
0.0000000000013074
 31
0.0
100
AcDbText
  0
POINT
  5
23C
330
1E
100
AcDbEntity
  8
DEFPOINTS
  6
CONTINUOUS
 62
     7
100
AcDbPoint
 10
312.0
 20
854.0000000000013
 30
0.0
  0
POINT
  5
23D
330
1E
100
AcDbEntity
  8
DEFPOINTS
  6
CONTINUOUS
 62
     7
100
AcDbPoint
 10
312.0
 20
-853.9999999999988
 30
0.0
  0
POINT
  5
23E
330
1E
100
AcDbEntity
  8
DEFPOINTS
  6
CONTINUOUS
 62
     7
100
AcDbPoint
 10
1000.250082444914
 20
-853.9999999999988
 30
0.0
  0
LINE
  5
23F
330
1E
100
AcDbEntity
  8
NOTE
  6
CONTINUOUS
 62
     4
100
AcDbLine
 10
302.9999999999917
 20
-17.99999999999619
 30
0.0
 11
302.9999999999917
 21
22.0000000000038
 31
0.0
  0
LINE
  5
240
330
1E
100
AcDbEntity
  8
NOTE
  6
CONTINUOUS
 62
     4
100
AcDbLine
 10
282.9999999999916
 20
2.000000000003808
 30
0.0
 11
322.9999999999916
 21
2.000000000003808
 31
0.0
  0
LINE
  5
241
330
1E
100
AcDbEntity
  8
SIZE
  6
CONTINUOUS
 62
    30
100
AcDbLine
 10
-332.0
 20
-853.9999999999988
 30
0.0
 11
-686.855752861584
 21
-853.9999999999988
 31
0.0
  0
LINE
  5
242
330
1E
100
AcDbEntity
  8
SIZE
  6
CONTINUOUS
 62
    30
100
AcDbLine
 10
-343.0
 20
2.000000000003771
 30
0.0
 11
-686.8557528615838
 21
2.000000000003868
 31
0.0
  0
LINE
  5
243
330
1E
100
AcDbEntity
  8
SIZE
  6
CONTINUOUS
 62
    30
100
AcDbLine
 10
-656.8557528615841
 20
-843.9999999999987
 30
0.0
 11
-656.8557528615838
 21
-7.999999999996139
 31
0.0
  0
CIRCLE
  5
244
330
1E
100
AcDbEntity
  8
SIZE
  6
CONTINUOUS
 62
    30
100
AcDbCircle
 10
-656.8557528615841
 20
-853.9999999999988
 30
0.0
 40
5.0
  0
LINE
  5
245
330
1E
100
AcDbEntity
  8
SIZE
  6
CONTINUOUS
 62
    30
100
AcDbLine
 10
-656.8557528615841
 20
-848.9999999999987
 30
0.0
 11
-656.8557528615841
 21
-843.9999999999987
 31
0.0
  0
CIRCLE
  5
246
330
1E
100
AcDbEntity
  8
SIZE
  6
CONTINUOUS
 62
    30
100
AcDbCircle
 10
-656.8557528615838
 20
2.00000000000386
 30
0.0
 40
5.0
  0
LINE
  5
247
330
1E
100
AcDbEntity
  8
SIZE
  6
CONTINUOUS
 62
    30
100
AcDbLine
 10
-656.8557528615838
 20
-2.999999999996139
 30
0.0
 11
-656.8557528615838
 21
-7.999999999996139
 31
0.0
  0
TEXT
  5
248
330
1E
100
AcDbEntity
  8
SIZE
  6
CONTINUOUS
 62
    30
100
AcDbText
 10
-676.8557528615835
 20
-485.2953856475002
 30
0.0
 40
64.0
  1
856
 50
90.0
 41
0.9
 72
     1
 11
-676.8557528615835
 21
-412.6096713617859
 31
0.0
100
AcDbText
  0
POINT
  5
249
330
1E
100
AcDbEntity
  8
DEFPOINTS
  6
CONTINUOUS
 62
     7
100
AcDbPoint
 10
-312.0
 20
-853.9999999999988
 30
0.0
  0
POINT
  5
24A
330
1E
100
AcDbEntity
  8
DEFPOINTS
  6
CONTINUOUS
 62
     7
100
AcDbPoint
 10
-323.0
 20
2.000000000003764
 30
0.0
  0
POINT
  5
24B
330
1E
100
AcDbEntity
  8
DEFPOINTS
  6
CONTINUOUS
 62
     7
100
AcDbPoint
 10
-656.8557528615838
 20
2.00000000000386
 30
0.0
  0
LINE
  5
24C
330
1E
100
AcDbEntity
  8
SIZE
  6
CONTINUOUS
 62
    30
100
AcDbLine
 10
342.9999999999917
 20
2.000000000003801
 30
0.0
 11
827.6451241999691
 21
2.000000000003664
 31
0.0
  0
LINE
  5
24D
330
1E
100
AcDbEntity
  8
SIZE
  6
CONTINUOUS
 62
    30
100
AcDbLine
 10
331.9999999999998
 20
-853.9999999999988
 30
0.0
 11
827.6451241999691
 21
-853.9999999999988
 31
0.0
  0
LINE
  5
24E
330
1E
100
AcDbEntity
  8
SIZE
  6
CONTINUOUS
 62
    30
100
AcDbLine
 10
797.6451241999691
 20
-7.999999999996322
 30
0.0
 11
797.6451241999691
 21
-843.9999999999987
 31
0.0
  0
CIRCLE
  5
24F
330
1E
100
AcDbEntity
  8
SIZE
  6
CONTINUOUS
 62
    30
100
AcDbCircle
 10
797.6451241999691
 20
2.000000000003672
 30
0.0
 40
5.0
  0
LINE
  5
250
330
1E
100
AcDbEntity
  8
SIZE
  6
CONTINUOUS
 62
    30
100
AcDbLine
 10
797.6451241999691
 20
-2.999999999996326
 30
0.0
 11
797.6451241999691
 21
-7.999999999996326
 31
0.0
  0
CIRCLE
  5
251
330
1E
100
AcDbEntity
  8
SIZE
  6
CONTINUOUS
 62
    30
100
AcDbCircle
 10
797.6451241999691
 20
-853.9999999999988
 30
0.0
 40
5.0
  0
LINE
  5
252
330
1E
100
AcDbEntity
  8
SIZE
  6
CONTINUOUS
 62
    30
100
AcDbLine
 10
797.6451241999691
 20
-848.9999999999987
 30
0.0
 11
797.6451241999691
 21
-843.9999999999987
 31
0.0
  0
TEXT
  5
253
330
1E
100
AcDbEntity
  8
SIZE
  6
CONTINUOUS
 62
    30
100
AcDbText
 10
777.6451241999691
 20
-498.6857142857116
 30
0.0
 40
64.0
  1
856
 50
90.0
 41
0.9
 72
     1
 11
777.6451241999691
 21
-425.9999999999974
 31
0.0
100
AcDbText
  0
POINT
  5
254
330
1E
100
AcDbEntity
  8
DEFPOINTS
  6
CONTINUOUS
 62
     7
100
AcDbPoint
 10
322.9999999999916
 20
2.000000000003808
 30
0.0
  0
POINT
  5
255
330
1E
100
AcDbEntity
  8
DEFPOINTS
  6
CONTINUOUS
 62
     7
100
AcDbPoint
 10
311.9999999999998
 20
-853.9999999999988
 30
0.0
  0
POINT
  5
256
330
1E
100
AcDbEntity
  8
DEFPOINTS
  6
CONTINUOUS
 62
     7
100
AcDbPoint
 10
797.6451241999691
 20
-853.9999999999988
 30
0.0
  0
TEXT
  5
257
330
1E
100
AcDbEntity
  8
NOTE
  6
CONTINUOUS
 62
     4
100
AcDbText
 10
497.9772333676906
 20
199.6552048330018
 30
0.0
 40
64.0
  1
%%c200
 41
0.9
100
AcDbText
  0
LINE
  5
258
330
1E
100
AcDbEntity
  8
NOTE
  6
CONTINUOUS
 62
     4
100
AcDbLine
 10
772.289214484752
 20
175.0810088791141
 30
0.0
 11
446.0290194847523
 21
175.0810088791141
 31
0.0
  0
LINE
  5
259
330
1E
100
AcDbEntity
  8
NOTE
  6
CONTINUOUS
 62
     4
100
AcDbLine
 10
302.9999999999988
 20
2.000000000000738
 30
0.0
 11
446.0290194847523
 21
175.0810088791141
 31
0.0
  0
LWPOLYLINE
  5
25A
330
1E
100
AcDbEntity
  8
NOTE
  6
CONTINUOUS
 62
     4
100
AcDbPolyline
 90
        3
 70
     0
 43
0.0
 10
319.7269475231999
 20
38.33468392618328
 10
302.9999999999986
 20
2.000000000000284
 10
335.6533031141196
 20
25.10328453335573
  0
LINE
  5
25F
330
1E
100
AcDbEntity
  8
OUTLINE
  6
CONTINUOUS
 62
     3
100
AcDbLine
 10
355.0
 20
-988.9999999999997
 30
0.0
 11
355.0
 21
989.0000000000004
 31
0.0
  0
LINE
  5
260
330
1E
100
AcDbEntity
  8
OUTLINE
  6
CONTINUOUS
 62
     3
100
AcDbLine
 10
-355.0
 20
-988.9999999999997
 30
0.0
 11
-355.0
 21
989.0000000000004
 31
0.0
  0
LINE
  5
261
330
1E
100
AcDbEntity
  8
OUTLINE
  6
CONTINUOUS
 62
     3
100
AcDbLine
 10
339.0
 20
-1004.999999999999
 30
0.0
 11
-339.0
 21
-1004.999999999999
 31
0.0
  0
ARC
  5
262
330
1E
100
AcDbEntity
  8
OUTLINE
  6
CONTINUOUS
 62
     3
100
AcDbCircle
 10
-339.0
 20
-988.9999999999997
 30
0.0
 40
16.0
100
AcDbArc
 50
180.0
 51
270.0
  0
ARC
  5
263
330
1E
100
AcDbEntity
  8
OUTLINE
  6
CONTINUOUS
 62
     3
100
AcDbCircle
 10
339.0
 20
-988.9999999999997
 30
0.0
 40
16.0
100
AcDbArc
 50
270.0
 51
0.0
  0
LINE
  5
264
330
1E
100
AcDbEntity
  8
OUTLINE
  6
CONTINUOUS
 62
     3
100
AcDbLine
 10
339.0
 20
1005.0
 30
0.0
 11
-339.0
 21
1005.0
 31
0.0
  0
ARC
  5
265
330
1E
100
AcDbEntity
  8
OUTLINE
  6
CONTINUOUS
 62
     3
100
AcDbCircle
 10
-339.0
 20
989.0000000000004
 30
0.0
 40
16.0
100
AcDbArc
 50
90.0
 51
180.0
  0
ARC
  5
266
330
1E
100
AcDbEntity
  8
OUTLINE
  6
CONTINUOUS
 62
     3
100
AcDbCircle
 10
339.0
 20
989.0000000000004
 30
0.0
 40
16.0
100
AcDbArc
 50
0.0
 51
90.0
  0
TEXT
  5
267
330
1E
100
AcDbEntity
  8
NOTE
  6
CONTINUOUS
 62
     4
100
AcDbText
 10
701.8223389531702
 20
-2150.951895918366
 30
0.0
 40
64.0
  1
The other outdoor unit : %%c19.05
 41
0.9
100
AcDbText
  0
TEXT
  5
268
330
1E
100
AcDbEntity
  8
NOTE
  6
CONTINUOUS
 62
     4
100
AcDbText
 10
711.1829729191557
 20
-2012.400475809801
 30
0.0
 40
64.0
  1
R410A outdoor unit : %%c15.88
 41
0.9
100
AcDbText
  0
TEXT
  5
269
330
1E
100
AcDbEntity
  8
NOTE
  6
CONTINUOUS
 62
     4
100
AcDbText
 10
714.2438045004272
 20
-1837.658338152976
 30
0.0
 40
64.0
  1
RG %%c15.88
 41
0.9
100
AcDbText
  0
LINE
  5
26A
330
1E
100
AcDbEntity
  8
NOTE
  6
CONTINUOUS
 62
     4
100
AcDbLine
 10
668.5233893838179
 20
-1874.422547328272
 30
0.0
 11
1287.736576383817
 21
-1874.422547328272
 31
0.0
  0
ENDSEC
  0
SECTION
  2
OBJECTS
  0
DICTIONARY
  5
C
330
0
100
AcDbDictionary
  3
ACAD_GROUP
350
D
  3
ACAD_LAYOUT
350
19
  3
ACAD_MLINESTYLE
350
16
  3
ACAD_PLOTSETTINGS
350
18
  3
ACAD_PLOTSTYLENAME
350
E
  3
ACDBHEADERROUNDTRIPXREC
350
26D
  0
DICTIONARY
  5
290
330
1E
100
AcDbDictionary
280
     1
  3
ACAD_LAYOUTSELFREF
360
291
  0
DICTIONARY
  5
28E
330
1A
100
AcDbDictionary
280
     1
  3
ACAD_LAYOUTSELFREF
360
28F
  0
DICTIONARY
  5
D
102
{ACAD_REACTORS
330
C
102
}
330
C
100
AcDbDictionary
  0
DICTIONARY
  5
19
102
{ACAD_REACTORS
330
C
102
}
330
C
100
AcDbDictionary
  0
DICTIONARY
  5
16
102
{ACAD_REACTORS
330
C
102
}
330
C
100
AcDbDictionary
  3
STANDARD
350
17
  0
DICTIONARY
  5
18
102
{ACAD_REACTORS
330
C
102
}
330
C
100
AcDbDictionary
  0
ACDBDICTIONARYWDFLT
  5
E
102
{ACAD_REACTORS
330
C
102
}
330
C
100
AcDbDictionary
281
     1
  3
Normal
350
F
100
AcDbDictionaryWithDefault
340
F
  0
DICTIONARY
  5
26D
102
{ACAD_REACTORS
330
C
102
}
330
C
100
AcDbDictionary
  3
CEPSNTYPE
350
277
  3
DIMSTYLEDATA
350
27B
  3
FINGERPRINTGUID
350
278
  3
HYPERLINKBASE
350
270
  3
INSUNITS
350
276
  3
LAYOUTDICT
350
272
  3
LWETCUNION
350
275
  3
PLOTSETDICT
350
273
  3
PLOTSTYLNAMDICT
350
274
  3
PSVPSCALE
350
27A
  3
PUCSBASE
350
27E
  3
PUCSORGBACK
350
284
  3
PUCSORGBOTTOM
350
280
  3
PUCSORGFRONT
350
283
  3
PUCSORGLEFT
350
281
  3
PUCSORGRIGHT
350
282
  3
PUCSORGTOP
350
27F
  3
PUCSORTHOREF
350
27C
  3
PUCSORTHOVIEW
350
27D
  3
STYLESHEET
350
271
  3
TSTACKALIGN
350
26E
  3
TSTACKSIZE
350
26F
  3
UCSBASE
350
287
  3
UCSORGBACK
350
28D
  3
UCSORGBOTTOM
350
289
  3
UCSORGFRONT
350
28C
  3
UCSORGLEFT
350
28A
  3
UCSORGRIGHT
350
28B
  3
UCSORGTOP
350
288
  3
UCSORTHOREF
350
285
  3
UCSORTHOVIEW
350
286
  3
VERSIONGUID
350
279
  0
XRECORD
  5
291
102
{ACAD_REACTORS
330
290
102
}
330
290
100
AcDbXrecord
340
1E
  0
XRECORD
  5
28F
102
{ACAD_REACTORS
330
28E
102
}
330
28E
100
AcDbXrecord
340
1A
  0
MLINESTYLE
  5
17
102
{ACAD_REACTORS
330
16
102
}
330
16
100
AcDbMlineStyle
  2
STANDARD
 70
     0
  3

 62
   256
 51
90.0
 52
90.0
 71
     2
 49
0.5
 62
   256
  6
BYLAYER
 49
-0.5
 62
   256
  6
BYLAYER
  0
ACDBPLACEHOLDER
  5
F
102
{ACAD_REACTORS
330
E
102
}
330
E
100
AcDbPlaceHolder
280
     0
  0
XRECORD
  5
277
102
{ACAD_REACTORS
330
26D
102
}
330
26D
100
AcDbXrecord
 90
        0
  0
XRECORD
  5
27B
102
{ACAD_REACTORS
330
26D
102
}
330
26D
100
AcDbXrecord
1000
DSTYLE
1002
{
1070
   341
340
39
1070
   342
340
39
1070
   343
340
39
1070
   344
340
34
1002
}
  0
XRECORD
  5
278
102
{ACAD_REACTORS
330
26D
102
}
330
26D
100
AcDbXrecord
  1
{380DD142-C1B7-4BC3-94CC-D38D6F4B1AAB}
  0
XRECORD
  5
270
102
{ACAD_REACTORS
330
26D
102
}
330
26D
100
AcDbXrecord
  1

  0
XRECORD
  5
276
102
{ACAD_REACTORS
330
26D
102
}
330
26D
100
AcDbXrecord
 90
        0
  0
XRECORD
  5
272
102
{ACAD_REACTORS
330
26D
102
}
330
26D
100
AcDbXrecord
340
19
  0
XRECORD
  5
275
102
{ACAD_REACTORS
330
26D
102
}
330
26D
100
AcDbXrecord
 90
    10781
  0
XRECORD
  5
273
102
{ACAD_REACTORS
330
26D
102
}
330
26D
100
AcDbXrecord
340
18
  0
XRECORD
  5
274
102
{ACAD_REACTORS
330
26D
102
}
330
26D
100
AcDbXrecord
340
E
  0
XRECORD
  5
27A
102
{ACAD_REACTORS
330
26D
102
}
330
26D
100
AcDbXrecord
 40
0.0
  0
XRECORD
  5
27E
102
{ACAD_REACTORS
330
26D
102
}
330
26D
100
AcDbXrecord
340
0
  0
XRECORD
  5
284
102
{ACAD_REACTORS
330
26D
102
}
330
26D
100
AcDbXrecord
 10
0.0
 20
0.0
 30
0.0
  0
XRECORD
  5
280
102
{ACAD_REACTORS
330
26D
102
}
330
26D
100
AcDbXrecord
 10
0.0
 20
0.0
 30
0.0
  0
XRECORD
  5
283
102
{ACAD_REACTORS
330
26D
102
}
330
26D
100
AcDbXrecord
 10
0.0
 20
0.0
 30
0.0
  0
XRECORD
  5
281
102
{ACAD_REACTORS
330
26D
102
}
330
26D
100
AcDbXrecord
 10
0.0
 20
0.0
 30
0.0
  0
XRECORD
  5
282
102
{ACAD_REACTORS
330
26D
102
}
330
26D
100
AcDbXrecord
 10
0.0
 20
0.0
 30
0.0
  0
XRECORD
  5
27F
102
{ACAD_REACTORS
330
26D
102
}
330
26D
100
AcDbXrecord
 10
0.0
 20
0.0
 30
0.0
  0
XRECORD
  5
27C
102
{ACAD_REACTORS
330
26D
102
}
330
26D
100
AcDbXrecord
340
0
  0
XRECORD
  5
27D
102
{ACAD_REACTORS
330
26D
102
}
330
26D
100
AcDbXrecord
 70
     0
  0
XRECORD
  5
271
102
{ACAD_REACTORS
330
26D
102
}
330
26D
100
AcDbXrecord
  1

  0
XRECORD
  5
26E
102
{ACAD_REACTORS
330
26D
102
}
330
26D
100
AcDbXrecord
 90
        1
  0
XRECORD
  5
26F
102
{ACAD_REACTORS
330
26D
102
}
330
26D
100
AcDbXrecord
 90
       70
  0
XRECORD
  5
287
102
{ACAD_REACTORS
330
26D
102
}
330
26D
100
AcDbXrecord
340
0
  0
XRECORD
  5
28D
102
{ACAD_REACTORS
330
26D
102
}
330
26D
100
AcDbXrecord
 10
0.0
 20
0.0
 30
0.0
  0
XRECORD
  5
289
102
{ACAD_REACTORS
330
26D
102
}
330
26D
100
AcDbXrecord
 10
0.0
 20
0.0
 30
0.0
  0
XRECORD
  5
28C
102
{ACAD_REACTORS
330
26D
102
}
330
26D
100
AcDbXrecord
 10
0.0
 20
0.0
 30
0.0
  0
XRECORD
  5
28A
102
{ACAD_REACTORS
330
26D
102
}
330
26D
100
AcDbXrecord
 10
0.0
 20
0.0
 30
0.0
  0
XRECORD
  5
28B
102
{ACAD_REACTORS
330
26D
102
}
330
26D
100
AcDbXrecord
 10
0.0
 20
0.0
 30
0.0
  0
XRECORD
  5
288
102
{ACAD_REACTORS
330
26D
102
}
330
26D
100
AcDbXrecord
 10
0.0
 20
0.0
 30
0.0
  0
XRECORD
  5
285
102
{ACAD_REACTORS
330
26D
102
}
330
26D
100
AcDbXrecord
340
0
  0
XRECORD
  5
286
102
{ACAD_REACTORS
330
26D
102
}
330
26D
100
AcDbXrecord
 70
     0
  0
XRECORD
  5
279
102
{ACAD_REACTORS
330
26D
102
}
330
26D
100
AcDbXrecord
  1
{073F5230-0FD4-45C0-A888-DB570C415984}
  0
ENDSEC
  0
EOF
