  0
SECTION
  2
HEADER
  9
$ACADVER
  1
AC1014
  9
$ACADMAINTVER
 70
     9
  9
$DWGCODEPAGE
  3
ANSI_932
  9
$INSBASE
 10
0.0
 20
0.0
 30
0.0
  9
$EXTMIN
 10
-1617.461557593295
 20
-748.3021002594267
 30
0.0
  9
$EXTMAX
 10
2067.962521527179
 20
1201.254591313567
 30
0.0
  9
$LIMMIN
 10
-4200.0
 20
-2970.0
  9
$LIMMAX
 10
4200.0
 20
2970.0
  9
$ORTHOMODE
 70
     0
  9
$REGENMODE
 70
     1
  9
$FILLMODE
 70
     1
  9
$QTEXTMODE
 70
     0
  9
$MIRRTEXT
 70
     0
  9
$DRAGMODE
 70
     2
  9
$LTSCALE
 40
20.0
  9
$OSMODE
 70
    37
  9
$ATTMODE
 70
     1
  9
$TEXTSIZE
 40
64.0
  9
$TRACEWID
 40
0.05
  9
$TEXTSTYLE
  7
STANDARD
  9
$CLAYER
  8
0
  9
$CELTYPE
  6
CONTINUOUS
  9
$CECOLOR
 62
     7
  9
$CELTSCALE
 40
1.0
  9
$DELOBJ
 70
     1
  9
$DISPSILH
 70
     0
  9
$DIMSCALE
 40
1.0
  9
$DIMASZ
 40
10.0
  9
$DIMEXO
 40
20.0
  9
$DIMDLI
 40
200.0
  9
$DIMRND
 40
0.0
  9
$DIMDLE
 40
0.0
  9
$DIMEXE
 40
30.0
  9
$DIMTP
 40
0.0
  9
$DIMTM
 40
0.0
  9
$DIMTXT
 40
64.0
  9
$DIMCEN
 40
0.0
  9
$DIMTSZ
 40
0.0
  9
$DIMTOL
 70
     0
  9
$DIMLIM
 70
     0
  9
$DIMTIH
 70
     0
  9
$DIMTOH
 70
     0
  9
$DIMSE1
 70
     0
  9
$DIMSE2
 70
     0
  9
$DIMTAD
 70
     1
  9
$DIMZIN
 70
     8
  9
$DIMBLK
  1
DOTBLANK
  9
$DIMASO
 70
     1
  9
$DIMSHO
 70
     0
  9
$DIMPOST
  1

  9
$DIMAPOST
  1

  9
$DIMALT
 70
     0
  9
$DIMALTD
 70
     2
  9
$DIMALTF
 40
25.4
  9
$DIMLFAC
 40
1.0
  9
$DIMTOFL
 70
     1
  9
$DIMTVP
 40
0.0
  9
$DIMTIX
 70
     1
  9
$DIMSOXD
 70
     0
  9
$DIMSAH
 70
     0
  9
$DIMBLK1
  1
DOTBLANK
  9
$DIMBLK2
  1
ORIGIN
  9
$DIMSTYLE
  2
STANDARD
  9
$DIMCLRD
 70
     0
  9
$DIMCLRE
 70
     0
  9
$DIMCLRT
 70
     0
  9
$DIMTFAC
 40
1.0
  9
$DIMGAP
 40
0.09
  9
$DIMJUST
 70
     0
  9
$DIMSD1
 70
     0
  9
$DIMSD2
 70
     0
  9
$DIMTOLJ
 70
     1
  9
$DIMTZIN
 70
     0
  9
$DIMALTZ
 70
     0
  9
$DIMALTTZ
 70
     0
  9
$DIMFIT
 70
     3
  9
$DIMUPT
 70
     0
  9
$DIMUNIT
 70
     2
  9
$DIMDEC
 70
     4
  9
$DIMTDEC
 70
     4
  9
$DIMALTU
 70
     2
  9
$DIMALTTD
 70
     2
  9
$DIMTXSTY
  7
STANDARD
  9
$DIMAUNIT
 70
     0
  9
$LUNITS
 70
     2
  9
$LUPREC
 70
     4
  9
$SKETCHINC
 40
0.1
  9
$FILLETRAD
 40
0.0
  9
$AUNITS
 70
     1
  9
$AUPREC
 70
     3
  9
$MENU
  1
ACAD
  9
$ELEVATION
 40
0.0
  9
$PELEVATION
 40
0.0
  9
$THICKNESS
 40
0.0
  9
$LIMCHECK
 70
     0
  9
$BLIPMODE
 70
     0
  9
$CHAMFERA
 40
0.0
  9
$CHAMFERB
 40
0.0
  9
$CHAMFERC
 40
0.0
  9
$CHAMFERD
 40
0.0
  9
$SKPOLY
 70
     0
  9
$TDCREATE
 40
2449761.493622685
  9
$TDUPDATE
 40
2453973.707475300
  9
$TDINDWG
 40
1.0949271875
  9
$TDUSRTIMER
 40
1.0949270023
  9
$USRTIMER
 70
     1
  9
$ANGBASE
 50
0.0
  9
$ANGDIR
 70
     0
  9
$PDMODE
 70
    35
  9
$PDSIZE
 40
100.0
  9
$PLINEWID
 40
0.0
  9
$COORDS
 70
     2
  9
$SPLFRAME
 70
     0
  9
$SPLINETYPE
 70
     6
  9
$SPLINESEGS
 70
     8
  9
$ATTDIA
 70
     0
  9
$ATTREQ
 70
     1
  9
$HANDLING
 70
-16383
  9
$HANDSEED
  5
245
  9
$SURFTAB1
 70
     6
  9
$SURFTAB2
 70
     6
  9
$SURFTYPE
 70
     6
  9
$SURFU
 70
     6
  9
$SURFV
 70
     6
  9
$UCSNAME
  2

  9
$UCSORG
 10
0.0
 20
0.0
 30
0.0
  9
$UCSXDIR
 10
1.0
 20
0.0
 30
0.0
  9
$UCSYDIR
 10
0.0
 20
1.0
 30
0.0
  9
$PUCSNAME
  2

  9
$PUCSORG
 10
0.0
 20
0.0
 30
0.0
  9
$PUCSXDIR
 10
1.0
 20
0.0
 30
0.0
  9
$PUCSYDIR
 10
0.0
 20
1.0
 30
0.0
  9
$USERI1
 70
     0
  9
$USERI2
 70
     0
  9
$USERI3
 70
     0
  9
$USERI4
 70
     0
  9
$USERI5
 70
     0
  9
$USERR1
 40
20.0
  9
$USERR2
 40
0.0
  9
$USERR3
 40
0.0
  9
$USERR4
 40
0.0
  9
$USERR5
 40
0.0
  9
$WORLDVIEW
 70
     1
  9
$SHADEDGE
 70
     3
  9
$SHADEDIF
 70
    70
  9
$TILEMODE
 70
     1
  9
$MAXACTVP
 70
    64
  9
$PINSBASE
 10
0.0
 20
0.0
 30
0.0
  9
$PLIMCHECK
 70
     0
  9
$PEXTMIN
 10
1.000000000000000E+20
 20
1.000000000000000E+20
 30
1.000000000000000E+20
  9
$PEXTMAX
 10
-1.000000000000000E+20
 20
-1.000000000000000E+20
 30
-1.000000000000000E+20
  9
$PLIMMIN
 10
0.0
 20
0.0
  9
$PLIMMAX
 10
12.0
 20
9.0
  9
$UNITMODE
 70
     0
  9
$VISRETAIN
 70
     1
  9
$PLINEGEN
 70
     0
  9
$PSLTSCALE
 70
     1
  9
$TREEDEPTH
 70
  3020
  9
$PICKSTYLE
 70
     0
  9
$CMLSTYLE
  2
STANDARD
  9
$CMLJUST
 70
     0
  9
$CMLSCALE
 40
1.0
  9
$PROXYGRAPHICS
 70
     1
  9
$MEASUREMENT
 70
     0
  0
ENDSEC
  0
SECTION
  2
CLASSES
  0
CLASS
  1
ACDBDICTIONARYWDFLT
  2
AcDbDictionaryWithDefault
  3
AutoCAD 2000
 90
        0
280
     0
281
     0
  0
CLASS
  1
ACDBPLACEHOLDER
  2
AcDbPlaceHolder
  3
AutoCAD 2000
 90
        0
280
     0
281
     0
  0
CLASS
  1
LAYOUT
  2
AcDbLayout
  3
AutoCAD 2000
 90
        0
280
     0
281
     0
  0
CLASS
  1
LONG_TRANSACTION
  2
AcDbLongTransaction
  3
AutoCAD 2000
 90
        0
280
     0
281
     0
  0
CLASS
  1
LWPOLYLINE
  2
AcDbPolyline
  3
AutoCAD 2000
 90
        0
280
     0
281
     1
  0
CLASS
  1
HATCH
  2
AcDbHatch
  3
AutoCAD 2000
 90
        0
280
     0
281
     1
  0
CLASS
  1
XRECORD
  2
AcDbXrecord
  3
AutoCAD 2000
 90
        0
280
     0
281
     0
  0
ENDSEC
  0
SECTION
  2
TABLES
  0
TABLE
  2
VPORT
  5
8
330
0
100
AcDbSymbolTable
 70
     2
  0
VPORT
  5
21F
330
8
100
AcDbSymbolTableRecord
100
AcDbViewportTableRecord
  2
*ACTIVE
 70
     0
 10
0.0
 20
0.0
 11
1.0
 21
1.0
 12
350.717979240039
 22
226.5138834054923
 13
0.0
 23
0.0
 14
50.0
 24
50.0
 15
100.0
 25
100.0
 16
0.0
 26
0.0
 36
1.0
 17
0.0
 27
0.0
 37
0.0
 40
2386.472072400584
 41
1.657997399219765
 42
50.0
 43
0.0
 44
0.0
 50
0.0
 51
0.0
 71
     0
 72
  1000
 73
     1
 74
     0
 75
     0
 76
     0
 77
     0
 78
     0
  0
ENDTAB
  0
TABLE
  2
LTYPE
  5
5
330
0
100
AcDbSymbolTable
 70
     2
  0
LTYPE
  5
13
330
5
100
AcDbSymbolTableRecord
100
AcDbLinetypeTableRecord
  2
BYBLOCK
 70
     0
  3

 72
    65
 73
     0
 40
0.0
  0
LTYPE
  5
14
330
5
100
AcDbSymbolTableRecord
100
AcDbLinetypeTableRecord
  2
BYLAYER
 70
     0
  3

 72
    65
 73
     0
 40
0.0
  0
LTYPE
  5
15
330
5
100
AcDbSymbolTableRecord
100
AcDbLinetypeTableRecord
  2
CONTINUOUS
 70
     0
  3
????
 72
    65
 73
     0
 40
0.0
  0
LTYPE
  5
22
330
5
100
AcDbSymbolTableRecord
100
AcDbLinetypeTableRecord
  2
DASHDOT
 70
     0
  3
____ _ ____ _ ____ _ ____ _ ____ _ ____ _ ____
 72
    65
 73
     4
 40
5.5
 49
4.0
 74
     0
 49
-0.6
 74
     0
 49
0.3
 74
     0
 49
-0.6
 74
     0
  0
ENDTAB
  0
TABLE
  2
LAYER
  5
2
330
0
100
AcDbSymbolTable
 70
    12
  0
LAYER
  5
10
330
2
100
AcDbSymbolTableRecord
100
AcDbLayerTableRecord
  2
0
 70
     0
 62
     7
  6
CONTINUOUS
  0
LAYER
  5
23
330
2
100
AcDbSymbolTableRecord
100
AcDbLayerTableRecord
  2
OUTLINE
 70
     0
 62
     3
  6
CONTINUOUS
  0
LAYER
  5
24
330
2
100
AcDbSymbolTableRecord
100
AcDbLayerTableRecord
  2
DETAIL
 70
     0
 62
     5
  6
CONTINUOUS
  0
LAYER
  5
25
330
2
100
AcDbSymbolTableRecord
100
AcDbLayerTableRecord
  2
BASIS
 70
     0
 62
     6
  6
DASHDOT
  0
LAYER
  5
26
330
2
100
AcDbSymbolTableRecord
100
AcDbLayerTableRecord
  2
SIZE
 70
     0
 62
    30
  6
CONTINUOUS
  0
LAYER
  5
27
330
2
100
AcDbSymbolTableRecord
100
AcDbLayerTableRecord
  2
NOTE
 70
     0
 62
     4
  6
CONTINUOUS
  0
LAYER
  5
28
330
2
100
AcDbSymbolTableRecord
100
AcDbLayerTableRecord
  2
ARRANGE
 70
     0
 62
     1
  6
CONTINUOUS
  0
LAYER
  5
29
330
2
100
AcDbSymbolTableRecord
100
AcDbLayerTableRecord
  2
FIX
 70
     0
 62
    11
  6
CONTINUOUS
  0
LAYER
  5
2A
330
2
100
AcDbSymbolTableRecord
100
AcDbLayerTableRecord
  2
SERVICESPACE
 70
     0
 62
     2
  6
DASHDOT
  0
LAYER
  5
2B
330
2
100
AcDbSymbolTableRecord
100
AcDbLayerTableRecord
  2
ETC
 70
     0
 62
    61
  6
CONTINUOUS
  0
LAYER
  5
2C
330
2
100
AcDbSymbolTableRecord
100
AcDbLayerTableRecord
  2
SYMBOLLINE
 70
     0
 62
    15
  6
CONTINUOUS
  0
LAYER
  5
2D
330
2
100
AcDbSymbolTableRecord
100
AcDbLayerTableRecord
  2
DEFPOINTS
 70
     0
 62
     7
  6
CONTINUOUS
  0
ENDTAB
  0
TABLE
  2
STYLE
  5
3
330
0
100
AcDbSymbolTable
 70
     2
  0
STYLE
  5
11
330
3
100
AcDbSymbolTableRecord
100
AcDbTextStyleTableRecord
  2
STANDARD
 70
     0
 40
0.0
 41
0.9
 50
0.0
 71
     0
 42
64.0
  3
SIMPLEX
  4
BIGFONT
  0
STYLE
  5
2E
330
3
100
AcDbSymbolTableRecord
100
AcDbTextStyleTableRecord
  2
STANDARD1
 70
     0
 40
0.0
 41
1.0
 50
0.0
 71
     0
 42
64.0
  3
MONOTXT
  4
BIGFONT
  0
ENDTAB
  0
TABLE
  2
VIEW
  5
6
330
0
100
AcDbSymbolTable
 70
     1
  0
VIEW
  5
2F
330
6
100
AcDbSymbolTableRecord
100
AcDbViewTableRecord
  2
ALL
 70
     0
 40
6056.230032000001
 10
0.0
 20
58.11501599999999
 41
8400.0
 11
0.0
 21
0.0
 31
1.0
 12
0.0
 22
0.0
 32
0.0
 42
50.0
 43
0.0
 44
0.0
 50
0.0
 71
     0
  0
ENDTAB
  0
TABLE
  2
UCS
  5
7
330
0
100
AcDbSymbolTable
 70
     0
  0
ENDTAB
  0
TABLE
  2
APPID
  5
9
330
0
100
AcDbSymbolTable
 70
     1
  0
APPID
  5
12
330
9
100
AcDbSymbolTableRecord
100
AcDbRegAppTableRecord
  2
ACAD
 70
     0
  0
ENDTAB
  0
TABLE
  2
DIMSTYLE
  5
A
330
0
100
AcDbSymbolTable
 70
     1
  0
DIMSTYLE
105
21E
330
A
100
AcDbSymbolTableRecord
100
AcDbDimStyleTableRecord
  2
STANDARD
 70
     0
  3

  4

  5

  6

  7

 40
1.0
 41
0.18
 42
0.0625
 43
0.38
 44
0.18
 45
0.0
 46
0.0
 47
0.0
 48
0.0
140
0.18
141
0.09
142
0.0
143
25.4
144
1.0
145
0.0
146
1.0
147
0.09
 71
     0
 72
     0
 73
     1
 74
     1
 75
     0
 76
     0
 77
     0
 78
     0
170
     0
171
     2
172
     0
173
     0
174
     0
175
     0
176
     0
177
     0
178
     0
270
     2
271
     4
272
     4
273
     2
274
     2
340
11
275
     0
280
     0
281
     0
282
     0
283
     1
284
     0
285
     0
286
     0
287
     3
288
     0
  0
ENDTAB
  0
TABLE
  2
BLOCK_RECORD
  5
1
330
0
100
AcDbSymbolTable
 70
     2
  0
BLOCK_RECORD
  5
1E
102
{ACAD_XDICTIONARY
360
243
102
}
330
1
100
AcDbSymbolTableRecord
100
AcDbBlockTableRecord
  2
*MODEL_SPACE
  0
BLOCK_RECORD
  5
1A
102
{ACAD_XDICTIONARY
360
241
102
}
330
1
100
AcDbSymbolTableRecord
100
AcDbBlockTableRecord
  2
*PAPER_SPACE
  0
BLOCK_RECORD
  5
34
330
1
100
AcDbSymbolTableRecord
100
AcDbBlockTableRecord
  2
_ORIGIN
  0
BLOCK_RECORD
  5
39
330
1
100
AcDbSymbolTableRecord
100
AcDbBlockTableRecord
  2
_DOTBLANK
  0
ENDTAB
  0
ENDSEC
  0
SECTION
  2
BLOCKS
  0
BLOCK
  5
1F
330
1E
100
AcDbEntity
  8
0
100
AcDbBlockBegin
  2
*MODEL_SPACE
 70
     0
 10
0.0
 20
0.0
 30
0.0
  3
*MODEL_SPACE
  1

  0
ENDBLK
  5
20
330
1E
100
AcDbEntity
  8
0
100
AcDbBlockEnd
  0
BLOCK
  5
1B
330
1A
100
AcDbEntity
 67
     1
  8
0
100
AcDbBlockBegin
  2
*PAPER_SPACE
 70
     0
 10
0.0
 20
0.0
 30
0.0
  3
*PAPER_SPACE
  1

  0
ENDBLK
  5
1C
330
1A
100
AcDbEntity
 67
     1
  8
0
100
AcDbBlockEnd
  0
BLOCK
  5
35
330
34
100
AcDbEntity
  8
0
100
AcDbBlockBegin
  2
_ORIGIN
 70
     0
 10
0.0
 20
0.0
 30
0.0
  3
_ORIGIN
  1

  0
CIRCLE
  5
36
330
34
100
AcDbEntity
  8
0
  6
CONTINUOUS
 62
     7
100
AcDbCircle
 10
0.0
 20
0.0
 30
0.0
 40
0.5
  0
LINE
  5
37
330
34
100
AcDbEntity
  8
0
  6
CONTINUOUS
 62
     7
100
AcDbLine
 10
-0.5
 20
0.0
 30
0.0
 11
-1.0
 21
0.0
 31
0.0
  0
ENDBLK
  5
38
330
34
100
AcDbEntity
  8
0
100
AcDbBlockEnd
  0
BLOCK
  5
3A
330
39
100
AcDbEntity
  8
0
100
AcDbBlockBegin
  2
_DOTBLANK
 70
     0
 10
0.0
 20
0.0
 30
0.0
  3
_DOTBLANK
  1

  0
CIRCLE
  5
3B
330
39
100
AcDbEntity
  8
0
  6
CONTINUOUS
 62
     7
100
AcDbCircle
 10
0.0
 20
0.0
 30
0.0
 40
0.5
  0
LINE
  5
3C
330
39
100
AcDbEntity
  8
0
  6
CONTINUOUS
 62
     7
100
AcDbLine
 10
-0.5
 20
0.0
 30
0.0
 11
-1.0
 21
0.0
 31
0.0
  0
ENDBLK
  5
3D
330
39
100
AcDbEntity
  8
0
100
AcDbBlockEnd
  0
ENDSEC
  0
SECTION
  2
ENTITIES
  0
TEXT
  5
3E
330
1E
100
AcDbEntity
  8
0
  6
CONTINUOUS
 62
     7
100
AcDbText
 10
12761.29
 20
1934.172
 30
0.0
 40
3.2
  1
 
 50
0.000003
 41
0.5989580000000001
  7
STANDARD1
100
AcDbText
  0
LINE
  5
3F
330
1E
100
AcDbEntity
  8
DETAIL
  6
CONTINUOUS
 62
     5
100
AcDbLine
 10
317.0
 20
337.9999999999995
 30
0.0
 11
-316.9999999999999
 21
338.0
 31
0.0
  0
CIRCLE
  5
40
330
1E
100
AcDbEntity
  8
ARRANGE
  6
CONTINUOUS
 62
     1
100
AcDbCircle
 10
0.0
 20
-0.0000000000004547
 30
0.0
 40
40.0
  0
LINE
  5
41
330
1E
100
AcDbEntity
  8
DETAIL
  6
CONTINUOUS
 62
     5
100
AcDbLine
 10
354.9999999999998
 20
-0.0000000000004547
 30
0.0
 11
-355.0
 21
-0.0000000000004547
 31
0.0
  0
LINE
  5
42
330
1E
100
AcDbEntity
  8
DETAIL
  6
CONTINUOUS
 62
     5
100
AcDbLine
 10
347.9999999999998
 20
-8.000000000000454
 30
0.0
 11
-348.0
 21
-8.000000000000454
 31
0.0
  0
POINT
  5
43
330
1E
100
AcDbEntity
  8
ARRANGE
  6
CONTINUOUS
 62
     1
100
AcDbPoint
 10
0.0
 20
-0.0000000000004547
 30
0.0
  0
LINE
  5
44
330
1E
100
AcDbEntity
  8
NOTE
  6
CONTINUOUS
 62
     4
100
AcDbLine
 10
-68.0
 20
212.9999999999991
 30
0.0
 11
-403.981439366086
 21
744.4750960588667
 31
0.0
  0
LINE
  5
45
330
1E
100
AcDbEntity
  8
NOTE
  6
CONTINUOUS
 62
     4
100
AcDbLine
 10
-10.00000000000011
 20
212.9999999999994
 30
0.0
 11
-423.3857441566325
 21
918.8728060288877
 31
0.0
  0
LINE
  5
46
330
1E
100
AcDbEntity
  8
DETAIL
  6
CONTINUOUS
 62
     5
100
AcDbLine
 10
-316.9999999999999
 20
-0.0000000000009095
 30
0.0
 11
-316.9999999999999
 21
337.999999999999
 31
0.0
  0
LINE
  5
47
330
1E
100
AcDbEntity
  8
BASIS
  6
DASHDOT
 62
     6
100
AcDbLine
 10
0.0
 20
-65.75558100000032
 30
0.0
 11
0.0
 21
414.2172749999994
 31
0.0
  0
ARC
  5
48
330
1E
100
AcDbEntity
  8
DETAIL
  6
CONTINUOUS
 62
     5
100
AcDbCircle
 10
-348.0
 20
-1.000000000000454
 30
0.0
 40
7.0
100
AcDbArc
 50
180.0
 51
270.0
  0
TEXT
  5
49
330
1E
100
AcDbEntity
  8
NOTE
  6
CONTINUOUS
 62
     4
100
AcDbText
 10
-505.8539663660861
 20
764.9595730588664
 30
0.0
 40
64.0
  1
CL
 41
0.9
100
AcDbText
  0
LINE
  5
4A
330
1E
100
AcDbEntity
  8
NOTE
  6
CONTINUOUS
 62
     4
100
AcDbLine
 10
-403.981439366086
 20
744.4750960588667
 30
0.0
 11
-544.198038366086
 21
744.4750960588667
 31
0.0
  0
LINE
  5
4B
330
1E
100
AcDbEntity
  8
DETAIL
  6
CONTINUOUS
 62
     5
100
AcDbLine
 10
-355.0
 20
-1.000000000000454
 30
0.0
 11
-355.0
 21
-0.0000000000004547
 31
0.0
  0
TEXT
  5
4C
330
1E
100
AcDbEntity
  8
NOTE
  6
CONTINUOUS
 62
     4
100
AcDbText
 10
-536.4412101566325
 20
936.5614560288875
 30
0.0
 40
64.0
  1
EL
 41
0.9
100
AcDbText
  0
LINE
  5
4D
330
1E
100
AcDbEntity
  8
NOTE
  6
CONTINUOUS
 62
     4
100
AcDbLine
 10
-423.3857441566325
 20
918.8728060288877
 30
0.0
 11
-580.3767511566324
 21
918.8728060288877
 31
0.0
  0
LINE
  5
4E
330
1E
100
AcDbEntity
  8
NOTE
  6
CONTINUOUS
 62
     4
100
AcDbLine
 10
-419.5117289999999
 20
541.6108499999991
 30
0.0
 11
-884.4892620000001
 21
541.6108499999991
 31
0.0
  0
TEXT
  5
4F
330
1E
100
AcDbEntity
  8
NOTE
  6
CONTINUOUS
 62
     4
100
AcDbText
 10
-852.5975440150499
 20
567.8276656121314
 30
0.0
 40
64.0
  1
D1 VP-25
 41
0.9
100
AcDbText
  0
LINE
  5
50
330
1E
100
AcDbEntity
  8
NOTE
  6
CONTINUOUS
 62
     4
100
AcDbLine
 10
-180.0
 20
277.999999999999
 30
0.0
 11
-419.5117289999999
 21
541.6108499999991
 31
0.0
  0
LINE
  5
51
330
1E
100
AcDbEntity
  8
DETAIL
  6
CONTINUOUS
 62
     5
100
AcDbLine
 10
-262.0
 20
107.9999999999994
 30
0.0
 11
-262.0
 21
147.9999999999994
 31
0.0
  0
LINE
  5
52
330
1E
100
AcDbEntity
  8
DETAIL
  6
CONTINUOUS
 62
     5
100
AcDbLine
 10
-312.0
 20
107.9999999999994
 30
0.0
 11
-312.0
 21
147.9999999999994
 31
0.0
  0
LINE
  5
53
330
1E
100
AcDbEntity
  8
DETAIL
  6
CONTINUOUS
 62
     5
100
AcDbLine
 10
-312.0
 20
107.9999999999994
 30
0.0
 11
-262.0
 21
107.9999999999994
 31
0.0
  0
CIRCLE
  5
54
330
1E
100
AcDbEntity
  8
FIX
  6
CONTINUOUS
 62
    11
100
AcDbCircle
 10
-287.0
 20
147.9999999999994
 30
0.0
 40
20.0
  0
LINE
  5
55
330
1E
100
AcDbEntity
  8
NOTE
  6
CONTINUOUS
 62
     4
100
AcDbLine
 10
-307.0
 20
147.9999999999994
 30
0.0
 11
-267.0
 21
147.9999999999994
 31
0.0
  0
LINE
  5
56
330
1E
100
AcDbEntity
  8
NOTE
  6
CONTINUOUS
 62
     4
100
AcDbLine
 10
-287.0
 20
127.9999999999995
 30
0.0
 11
-287.0
 21
167.9999999999994
 31
0.0
  0
LINE
  5
57
330
1E
100
AcDbEntity
  8
DETAIL
  6
CONTINUOUS
 62
     5
100
AcDbLine
 10
-312.0
 20
147.9999999999994
 30
0.0
 11
-262.0
 21
147.9999999999994
 31
0.0
  0
LINE
  5
58
330
1E
100
AcDbEntity
  8
NOTE
  6
CONTINUOUS
 62
     4
100
AcDbLine
 10
-307.0
 20
147.9999999999994
 30
0.0
 11
-267.0
 21
147.9999999999994
 31
0.0
  0
LINE
  5
59
330
1E
100
AcDbEntity
  8
NOTE
  6
CONTINUOUS
 62
     4
100
AcDbLine
 10
-68.0
 20
192.9999999999991
 30
0.0
 11
-68.0
 21
232.999999999999
 31
0.0
  0
LINE
  5
5A
330
1E
100
AcDbEntity
  8
NOTE
  6
CONTINUOUS
 62
     4
100
AcDbLine
 10
-10.0
 20
192.9999999999991
 30
0.0
 11
-10.0
 21
232.999999999999
 31
0.0
  0
LWPOLYLINE
  5
5B
330
1E
100
AcDbEntity
  8
NOTE
  6
CONTINUOUS
 62
     4
100
AcDbPolyline
 90
        3
 70
     0
 43
0.0
 10
-97.3563842089552
 20
240.1698850501364
 10
-68.0
 20
212.9999999999991
 10
-79.83843126195734
 20
251.2080031023106
  0
LINE
  5
60
330
1E
100
AcDbEntity
  8
NOTE
  6
CONTINUOUS
 62
     4
100
AcDbLine
 10
-88.0
 20
212.9999999999991
 30
0.0
 11
-48.0
 21
212.9999999999991
 31
0.0
  0
LINE
  5
61
330
1E
100
AcDbEntity
  8
NOTE
  6
CONTINUOUS
 62
     4
100
AcDbLine
 10
-30.0
 20
212.9999999999991
 30
0.0
 11
10.0
 21
212.9999999999991
 31
0.0
  0
LWPOLYLINE
  5
62
330
1E
100
AcDbEntity
  8
NOTE
  6
CONTINUOUS
 62
     4
100
AcDbPolyline
 90
        3
 70
     0
 43
0.0
 10
-38.65309650357186
 20
240.9105720037746
 10
-10.00000000000011
 20
212.9999999999994
 10
-20.85902356436973
 20
251.4978124748853
  0
LINE
  5
67
330
1E
100
AcDbEntity
  8
NOTE
  6
CONTINUOUS
 62
     4
100
AcDbLine
 10
-200.0
 20
277.999999999999
 30
0.0
 11
-160.0
 21
277.999999999999
 31
0.0
  0
LINE
  5
68
330
1E
100
AcDbEntity
  8
NOTE
  6
CONTINUOUS
 62
     4
100
AcDbLine
 10
-180.0
 20
257.9999999999989
 30
0.0
 11
-180.0
 21
297.999999999999
 31
0.0
  0
LWPOLYLINE
  5
69
330
1E
100
AcDbEntity
  8
NOTE
  6
CONTINUOUS
 62
     4
100
AcDbPolyline
 90
        3
 70
     0
 43
0.0
 10
-213.444297
 20
299.9426289999992
 10
-180.0
 20
277.999999999999
 10
-197.992296
 20
313.725022999999
  0
LINE
  5
6E
330
1E
100
AcDbEntity
  8
DETAIL
  6
CONTINUOUS
 62
     5
100
AcDbLine
 10
317.0
 20
-0.0000000000004547
 30
0.0
 11
317.0
 21
337.9999999999995
 31
0.0
  0
ARC
  5
6F
330
1E
100
AcDbEntity
  8
DETAIL
  6
CONTINUOUS
 62
     5
100
AcDbCircle
 10
347.9999999999998
 20
-1.000000000000454
 30
0.0
 40
7.0
100
AcDbArc
 50
270.0
 51
0.0
  0
LINE
  5
70
330
1E
100
AcDbEntity
  8
DETAIL
  6
CONTINUOUS
 62
     5
100
AcDbLine
 10
354.9999999999998
 20
-1.000000000000454
 30
0.0
 11
354.9999999999998
 21
-0.0000000000004547
 31
0.0
  0
TEXT
  5
71
330
1E
100
AcDbEntity
  8
ETC
  6
CONTINUOUS
 62
    61
100
AcDbText
 10
595.2028765397398
 20
1026.288359371609
 30
0.0
 40
64.0
  1
PLFY-P100VLMD-E_2
 41
0.9
100
AcDbText
  0
LINE
  5
72
330
1E
100
AcDbEntity
  8
NOTE
  6
CONTINUOUS
 62
     4
100
AcDbLine
 10
687.0329640956607
 20
756.6352217365627
 30
0.0
 11
1149.063727095659
 21
756.6352217365627
 31
0.0
  0
TEXT
  5
73
330
1E
100
AcDbEntity
  8
NOTE
  6
CONTINUOUS
 62
     4
100
AcDbText
 10
741.9191342211354
 20
777.347865232936
 30
0.0
 40
64.0
  1
RL %%c9.52
 41
0.9
100
AcDbText
  0
LINE
  5
74
330
1E
100
AcDbEntity
  8
NOTE
  6
CONTINUOUS
 62
     4
100
AcDbLine
 10
171.0
 20
215.9999999999989
 30
0.0
 11
571.4635719578261
 21
583.6427345296132
 31
0.0
  0
LINE
  5
75
330
1E
100
AcDbEntity
  8
NOTE
  6
CONTINUOUS
 62
     4
100
AcDbLine
 10
101.0
 20
215.9999999999989
 30
0.0
 11
687.0329640956607
 21
756.6352217365627
 31
0.0
  0
LINE
  5
76
330
1E
100
AcDbEntity
  8
NOTE
  6
CONTINUOUS
 62
     4
100
AcDbLine
 10
-190.0
 20
71.99999999999909
 30
0.0
 11
-601.9859165429544
 21
-318.971522971602
 31
0.0
  0
LINE
  5
77
330
1E
100
AcDbEntity
  8
NOTE
  6
CONTINUOUS
 62
     4
100
AcDbLine
 10
-210.0
 20
71.99999999999909
 30
0.0
 11
-170.0
 21
71.99999999999909
 31
0.0
  0
LWPOLYLINE
  5
78
330
1E
100
AcDbEntity
  8
NOTE
  6
CONTINUOUS
 62
     4
100
AcDbPolyline
 90
        3
 70
     0
 43
0.0
 10
-210.6961397735478
 20
37.77033813049001
 10
-190.0
 20
71.99999999999909
 10
-225.0382141712917
 20
52.70431255978518
  0
LINE
  5
7D
330
1E
100
AcDbEntity
  8
NOTE
  6
CONTINUOUS
 62
     4
100
AcDbLine
 10
-190.0
 20
51.99999999999909
 30
0.0
 11
-190.0
 21
91.99999999999908
 31
0.0
  0
LWPOLYLINE
  5
7E
330
1E
100
AcDbEntity
  8
NOTE
  6
CONTINUOUS
 62
     4
100
AcDbPolyline
 90
        3
 70
     0
 43
0.0
 10
192.4150163574454
 20
249.7845689304703
 10
171.0
 20
215.9999999999989
 10
206.4382319349411
 20
234.5507865387388
  0
LINE
  5
83
330
1E
100
AcDbEntity
  8
NOTE
  6
CONTINUOUS
 62
     4
100
AcDbLine
 10
151.0
 20
215.9999999999989
 30
0.0
 11
191.0
 21
215.9999999999989
 31
0.0
  0
LINE
  5
84
330
1E
100
AcDbEntity
  8
NOTE
  6
CONTINUOUS
 62
     4
100
AcDbLine
 10
171.0
 20
195.999999999999
 30
0.0
 11
171.0
 21
235.999999999999
 31
0.0
  0
LINE
  5
85
330
1E
100
AcDbEntity
  8
NOTE
  6
CONTINUOUS
 62
     4
100
AcDbLine
 10
81.0
 20
215.9999999999989
 30
0.0
 11
121.0
 21
215.9999999999989
 31
0.0
  0
LINE
  5
86
330
1E
100
AcDbEntity
  8
NOTE
  6
CONTINUOUS
 62
     4
100
AcDbLine
 10
101.0
 20
195.999999999999
 30
0.0
 11
101.0
 21
235.999999999999
 31
0.0
  0
LWPOLYLINE
  5
87
330
1E
100
AcDbEntity
  8
NOTE
  6
CONTINUOUS
 62
     4
100
AcDbPolyline
 90
        3
 70
     0
 43
0.0
 10
121.650043635389
 20
250.2574906792683
 10
101.0
 20
215.9999999999989
 10
136.0122081002245
 20
235.3428354108523
  0
LINE
  5
8C
330
1E
100
AcDbEntity
  8
DETAIL
  6
CONTINUOUS
 62
     5
100
AcDbLine
 10
311.9999999999998
 20
107.9999999999994
 30
0.0
 11
311.9999999999998
 21
147.9999999999994
 31
0.0
  0
LINE
  5
8D
330
1E
100
AcDbEntity
  8
DETAIL
  6
CONTINUOUS
 62
     5
100
AcDbLine
 10
261.9999999999998
 20
107.9999999999994
 30
0.0
 11
261.9999999999998
 21
147.9999999999994
 31
0.0
  0
LINE
  5
8E
330
1E
100
AcDbEntity
  8
DETAIL
  6
CONTINUOUS
 62
     5
100
AcDbLine
 10
261.9999999999998
 20
107.9999999999994
 30
0.0
 11
311.9999999999998
 21
107.9999999999994
 31
0.0
  0
CIRCLE
  5
8F
330
1E
100
AcDbEntity
  8
FIX
  6
CONTINUOUS
 62
    11
100
AcDbCircle
 10
286.9999999999998
 20
147.9999999999994
 30
0.0
 40
20.0
  0
LINE
  5
90
330
1E
100
AcDbEntity
  8
NOTE
  6
CONTINUOUS
 62
     4
100
AcDbLine
 10
266.9999999999999
 20
147.9999999999994
 30
0.0
 11
306.9999999999998
 21
147.9999999999994
 31
0.0
  0
LINE
  5
91
330
1E
100
AcDbEntity
  8
NOTE
  6
CONTINUOUS
 62
     4
100
AcDbLine
 10
286.9999999999998
 20
127.9999999999995
 30
0.0
 11
286.9999999999998
 21
167.9999999999994
 31
0.0
  0
LINE
  5
92
330
1E
100
AcDbEntity
  8
DETAIL
  6
CONTINUOUS
 62
     5
100
AcDbLine
 10
261.9999999999998
 20
147.9999999999994
 30
0.0
 11
311.9999999999998
 21
147.9999999999994
 31
0.0
  0
LINE
  5
93
330
1E
100
AcDbEntity
  8
NOTE
  6
CONTINUOUS
 62
     4
100
AcDbLine
 10
266.9999999999999
 20
147.9999999999994
 30
0.0
 11
306.9999999999998
 21
147.9999999999994
 31
0.0
  0
LINE
  5
94
330
1E
100
AcDbEntity
  8
NOTE
  6
CONTINUOUS
 62
     4
100
AcDbLine
 10
266.9999999999999
 20
147.9999999999994
 30
0.0
 11
306.9999999999998
 21
147.9999999999994
 31
0.0
  0
TEXT
  5
95
330
1E
100
AcDbEntity
  8
NOTE
  6
CONTINUOUS
 62
     4
100
AcDbText
 10
-717.8248046867756
 20
-299.2075321378552
 30
0.0
 40
64.0
  1
D2
 41
0.9
100
AcDbText
  0
LINE
  5
96
330
1E
100
AcDbEntity
  8
NOTE
  6
CONTINUOUS
 62
     4
100
AcDbLine
 10
-765.4281055429541
 20
-318.971522971602
 30
0.0
 11
-601.9859165429544
 21
-318.971522971602
 31
0.0
  0
LINE
  5
97
330
1E
100
AcDbEntity
  8
SERVICESPACE
  6
DASHDOT
 62
     2
100
AcDbLine
 10
334.9999999999998
 20
19.99999999999954
 30
0.0
 11
334.9999999999998
 21
-0.0000000000004547
 31
0.0
  0
LINE
  5
98
330
1E
100
AcDbEntity
  8
DETAIL
  6
CONTINUOUS
 62
     5
100
AcDbLine
 10
30.0
 20
156.0799999999994
 30
0.0
 11
30.0
 21
237.9999999999994
 31
0.0
  0
LINE
  5
99
330
1E
100
AcDbEntity
  8
DETAIL
  6
CONTINUOUS
 62
     5
100
AcDbLine
 10
-108.0
 20
237.9999999999994
 30
0.0
 11
-108.0
 21
156.0799999999994
 31
0.0
  0
LINE
  5
9A
330
1E
100
AcDbEntity
  8
SERVICESPACE
  6
DASHDOT
 62
     2
100
AcDbLine
 10
-335.0
 20
19.99999999999954
 30
0.0
 11
-335.0
 21
-0.0000000000004547
 31
0.0
  0
LINE
  5
9B
330
1E
100
AcDbEntity
  8
SERVICESPACE
  6
DASHDOT
 62
     2
100
AcDbLine
 10
-335.0
 20
19.99999999999954
 30
0.0
 11
-395.0
 21
19.99999999999954
 31
0.0
  0
LINE
  5
9C
330
1E
100
AcDbEntity
  8
SERVICESPACE
  6
DASHDOT
 62
     2
100
AcDbLine
 10
395.0
 20
19.99999999999954
 30
0.0
 11
335.0
 21
19.99999999999954
 31
0.0
  0
LINE
  5
9D
330
1E
100
AcDbEntity
  8
SERVICESPACE
  6
DASHDOT
 62
     2
100
AcDbLine
 10
394.9999999999999
 20
-0.0000000000004547
 30
0.0
 11
334.9999999999998
 21
-0.0000000000004547
 31
0.0
  0
LINE
  5
9E
330
1E
100
AcDbEntity
  8
SERVICESPACE
  6
DASHDOT
 62
     2
100
AcDbLine
 10
-335.0
 20
-0.0000000000004547
 30
0.0
 11
-395.0
 21
-0.0000000000004547
 31
0.0
  0
LINE
  5
9F
330
1E
100
AcDbEntity
  8
DETAIL
  6
CONTINUOUS
 62
     5
100
AcDbLine
 10
-312.0
 20
145.6999999999993
 30
0.0
 11
-262.0
 21
145.6999999999993
 31
0.0
  0
LINE
  5
A0
330
1E
100
AcDbEntity
  8
DETAIL
  6
CONTINUOUS
 62
     5
100
AcDbLine
 10
261.9999999999998
 20
145.6999999999993
 30
0.0
 11
311.9999999999998
 21
145.6999999999993
 31
0.0
  0
LINE
  5
A1
330
1E
100
AcDbEntity
  8
DETAIL
  6
CONTINUOUS
 62
     5
100
AcDbLine
 10
30.0
 20
237.9999999999994
 30
0.0
 11
-108.0
 21
237.9999999999994
 31
0.0
  0
LINE
  5
A2
330
1E
100
AcDbEntity
  8
DETAIL
  6
CONTINUOUS
 62
     5
100
AcDbLine
 10
30.0
 20
187.9999999999994
 30
0.0
 11
-108.0
 21
187.9999999999994
 31
0.0
  0
LINE
  5
A3
330
1E
100
AcDbEntity
  8
DETAIL
  6
CONTINUOUS
 62
     5
100
AcDbLine
 10
317.0
 20
47.99999999999954
 30
0.0
 11
-316.9999999999999
 21
48.0
 31
0.0
  0
LINE
  5
A4
330
1E
100
AcDbEntity
  8
DETAIL
  6
CONTINUOUS
 62
     5
100
AcDbLine
 10
317.0
 20
44.99999999999952
 30
0.0
 11
-316.9999999999999
 21
45.0
 31
0.0
  0
LINE
  5
A5
330
1E
100
AcDbEntity
  8
SIZE
  6
CONTINUOUS
 62
    30
100
AcDbLine
 10
-316.9999999999999
 20
357.9999999999991
 30
0.0
 11
-316.9999999999999
 21
1147.254591313567
 31
0.0
  0
LINE
  5
A6
330
1E
100
AcDbEntity
  8
SIZE
  6
CONTINUOUS
 62
    30
100
AcDbLine
 10
317.0
 20
357.9999999999991
 30
0.0
 11
317.0
 21
1147.254591313567
 31
0.0
  0
LINE
  5
A7
330
1E
100
AcDbEntity
  8
SIZE
  6
CONTINUOUS
 62
    30
100
AcDbLine
 10
-306.9999999999997
 20
1117.254591313567
 30
0.0
 11
307.0
 21
1117.254591313567
 31
0.0
  0
CIRCLE
  5
A8
330
1E
100
AcDbEntity
  8
SIZE
  6
CONTINUOUS
 62
    30
100
AcDbCircle
 10
-316.9999999999999
 20
1117.254591313567
 30
0.0
 40
5.0
  0
LINE
  5
A9
330
1E
100
AcDbEntity
  8
SIZE
  6
CONTINUOUS
 62
    30
100
AcDbLine
 10
-311.9999999999998
 20
1117.254591313567
 30
0.0
 11
-306.9999999999998
 21
1117.254591313567
 31
0.0
  0
CIRCLE
  5
AA
330
1E
100
AcDbEntity
  8
SIZE
  6
CONTINUOUS
 62
    30
100
AcDbCircle
 10
317.0
 20
1117.254591313567
 30
0.0
 40
5.0
  0
LINE
  5
AB
330
1E
100
AcDbEntity
  8
SIZE
  6
CONTINUOUS
 62
    30
100
AcDbLine
 10
312.0
 20
1117.254591313567
 30
0.0
 11
307.0
 21
1117.254591313567
 31
0.0
  0
TEXT
  5
AC
330
1E
100
AcDbEntity
  8
SIZE
  6
CONTINUOUS
 62
    30
100
AcDbText
 10
-73.92207231970392
 20
1137.254591313567
 30
0.0
 40
64.0
  1
634
 41
0.9
 72
     1
 11
1.506499108867501
 21
1137.254591313567
 31
0.0
100
AcDbText
  0
POINT
  5
AD
330
1E
100
AcDbEntity
  8
DEFPOINTS
  6
CONTINUOUS
 62
     7
100
AcDbPoint
 10
-316.9999999999999
 20
337.999999999999
 30
0.0
  0
POINT
  5
AE
330
1E
100
AcDbEntity
  8
DEFPOINTS
  6
CONTINUOUS
 62
     7
100
AcDbPoint
 10
317.0
 20
337.999999999999
 30
0.0
  0
POINT
  5
AF
330
1E
100
AcDbEntity
  8
DEFPOINTS
  6
CONTINUOUS
 62
     7
100
AcDbPoint
 10
317.0
 20
1117.254591313567
 30
0.0
  0
LINE
  5
B0
330
1E
100
AcDbEntity
  8
SIZE
  6
CONTINUOUS
 62
    30
100
AcDbLine
 10
-180.0
 20
317.9999999999989
 30
0.0
 11
-179.9999999999998
 21
910.4193556569896
 31
0.0
  0
LINE
  5
B1
330
1E
100
AcDbEntity
  8
SIZE
  6
CONTINUOUS
 62
    30
100
AcDbLine
 10
317.0
 20
357.9999999999991
 30
0.0
 11
317.0
 21
910.4193556569896
 31
0.0
  0
LINE
  5
B2
330
1E
100
AcDbEntity
  8
SIZE
  6
CONTINUOUS
 62
    30
100
AcDbLine
 10
-169.9999999999998
 20
880.4193556569897
 30
0.0
 11
307.0
 21
880.4193556569897
 31
0.0
  0
CIRCLE
  5
B3
330
1E
100
AcDbEntity
  8
SIZE
  6
CONTINUOUS
 62
    30
100
AcDbCircle
 10
-179.9999999999998
 20
880.4193556569897
 30
0.0
 40
5.0
  0
LINE
  5
B4
330
1E
100
AcDbEntity
  8
SIZE
  6
CONTINUOUS
 62
    30
100
AcDbLine
 10
-174.9999999999998
 20
880.4193556569897
 30
0.0
 11
-169.9999999999998
 21
880.4193556569897
 31
0.0
  0
CIRCLE
  5
B5
330
1E
100
AcDbEntity
  8
SIZE
  6
CONTINUOUS
 62
    30
100
AcDbCircle
 10
317.0
 20
880.4193556569897
 30
0.0
 40
5.0
  0
LINE
  5
B6
330
1E
100
AcDbEntity
  8
SIZE
  6
CONTINUOUS
 62
    30
100
AcDbLine
 10
312.0
 20
880.4193556569897
 30
0.0
 11
307.0
 21
880.4193556569897
 31
0.0
  0
TEXT
  5
B7
330
1E
100
AcDbEntity
  8
SIZE
  6
CONTINUOUS
 62
    30
100
AcDbText
 10
-16.64163949980767
 20
900.4193556569898
 30
0.0
 40
64.0
  1
497
 41
0.9
 72
     1
 11
57.41550335733517
 21
900.4193556569898
 31
0.0
100
AcDbText
  0
POINT
  5
B8
330
1E
100
AcDbEntity
  8
DEFPOINTS
  6
CONTINUOUS
 62
     7
100
AcDbPoint
 10
-180.0
 20
297.999999999999
 30
0.0
  0
POINT
  5
B9
330
1E
100
AcDbEntity
  8
DEFPOINTS
  6
CONTINUOUS
 62
     7
100
AcDbPoint
 10
317.0
 20
337.999999999999
 30
0.0
  0
POINT
  5
BA
330
1E
100
AcDbEntity
  8
DEFPOINTS
  6
CONTINUOUS
 62
     7
100
AcDbPoint
 10
317.0
 20
880.4193556569897
 30
0.0
  0
LINE
  5
BB
330
1E
100
AcDbEntity
  8
SIZE
  6
CONTINUOUS
 62
    30
100
AcDbLine
 10
-68.0
 20
252.999999999999
 30
0.0
 11
-67.99999999999997
 21
795.9933616419491
 31
0.0
  0
LINE
  5
BC
330
1E
100
AcDbEntity
  8
SIZE
  6
CONTINUOUS
 62
    30
100
AcDbLine
 10
-9.999999999999998
 20
252.999999999999
 30
0.0
 11
-9.999999999999966
 21
795.9933616419491
 31
0.0
  0
LINE
  5
BD
330
1E
100
AcDbEntity
  8
SIZE
  6
CONTINUOUS
 62
    30
100
AcDbLine
 10
-77.99999999999997
 20
765.9933616419491
 30
0.0
 11
-87.99999999999995
 21
765.9933616419491
 31
0.0
  0
LINE
  5
BE
330
1E
100
AcDbEntity
  8
SIZE
  6
CONTINUOUS
 62
    30
100
AcDbLine
 10
0.000000000000032
 20
765.9933616419491
 30
0.0
 11
10.00000000000003
 21
765.9933616419491
 31
0.0
  0
LINE
  5
BF
330
1E
100
AcDbEntity
  8
SIZE
  6
CONTINUOUS
 62
    30
100
AcDbLine
 10
-67.99999999999997
 20
765.9933616419491
 30
0.0
 11
-9.999999999999966
 21
765.9933616419491
 31
0.0
  0
CIRCLE
  5
C0
330
1E
100
AcDbEntity
  8
SIZE
  6
CONTINUOUS
 62
    30
100
AcDbCircle
 10
-67.99999999999997
 20
765.9933616419491
 30
0.0
 40
5.0
  0
LINE
  5
C1
330
1E
100
AcDbEntity
  8
SIZE
  6
CONTINUOUS
 62
    30
100
AcDbLine
 10
-72.99999999999997
 20
765.9933616419491
 30
0.0
 11
-77.99999999999997
 21
765.9933616419491
 31
0.0
  0
CIRCLE
  5
C2
330
1E
100
AcDbEntity
  8
SIZE
  6
CONTINUOUS
 62
    30
100
AcDbCircle
 10
-9.999999999999966
 20
765.9933616419491
 30
0.0
 40
5.0
  0
LINE
  5
C3
330
1E
100
AcDbEntity
  8
SIZE
  6
CONTINUOUS
 62
    30
100
AcDbLine
 10
-4.999999999999968
 20
765.9933616419491
 30
0.0
 11
0.000000000000032
 21
765.9933616419491
 31
0.0
  0
TEXT
  5
C4
330
1E
100
AcDbEntity
  8
SIZE
  6
CONTINUOUS
 62
    30
100
AcDbText
 10
-85.6285714285714
 20
785.9933616419491
 30
0.0
 40
64.0
  1
58
 41
0.9
 72
     1
 11
-38.99999999999998
 21
785.9933616419491
 31
0.0
100
AcDbText
  0
POINT
  5
C5
330
1E
100
AcDbEntity
  8
DEFPOINTS
  6
CONTINUOUS
 62
     7
100
AcDbPoint
 10
-68.0
 20
232.999999999999
 30
0.0
  0
POINT
  5
C6
330
1E
100
AcDbEntity
  8
DEFPOINTS
  6
CONTINUOUS
 62
     7
100
AcDbPoint
 10
-10.0
 20
232.999999999999
 30
0.0
  0
POINT
  5
C7
330
1E
100
AcDbEntity
  8
DEFPOINTS
  6
CONTINUOUS
 62
     7
100
AcDbPoint
 10
-9.999999999999966
 20
765.9933616419491
 30
0.0
  0
LINE
  5
C8
330
1E
100
AcDbEntity
  8
SIZE
  6
CONTINUOUS
 62
    30
100
AcDbLine
 10
-9.999999999999998
 20
252.999999999999
 30
0.0
 11
-9.999999999999966
 21
795.9933616419491
 31
0.0
  0
LINE
  5
C9
330
1E
100
AcDbEntity
  8
SIZE
  6
CONTINUOUS
 62
    30
100
AcDbLine
 10
317.0
 20
357.9999999999991
 30
0.0
 11
317.0
 21
795.9933616419491
 31
0.0
  0
LINE
  5
CA
330
1E
100
AcDbEntity
  8
SIZE
  6
CONTINUOUS
 62
    30
100
AcDbLine
 10
0.000000000000032
 20
765.9933616419491
 30
0.0
 11
307.0
 21
765.9933616419491
 31
0.0
  0
CIRCLE
  5
CB
330
1E
100
AcDbEntity
  8
SIZE
  6
CONTINUOUS
 62
    30
100
AcDbCircle
 10
-9.999999999999966
 20
765.9933616419491
 30
0.0
 40
5.0
  0
LINE
  5
CC
330
1E
100
AcDbEntity
  8
SIZE
  6
CONTINUOUS
 62
    30
100
AcDbLine
 10
-4.999999999999968
 20
765.9933616419491
 30
0.0
 11
0.000000000000032
 21
765.9933616419491
 31
0.0
  0
CIRCLE
  5
CD
330
1E
100
AcDbEntity
  8
SIZE
  6
CONTINUOUS
 62
    30
100
AcDbCircle
 10
317.0
 20
765.9933616419491
 30
0.0
 40
5.0
  0
LINE
  5
CE
330
1E
100
AcDbEntity
  8
SIZE
  6
CONTINUOUS
 62
    30
100
AcDbLine
 10
312.0
 20
765.9933616419491
 30
0.0
 11
307.0
 21
765.9933616419491
 31
0.0
  0
TEXT
  5
CF
330
1E
100
AcDbEntity
  8
SIZE
  6
CONTINUOUS
 62
    30
100
AcDbText
 10
80.53352895219456
 20
785.9933616419491
 30
0.0
 40
64.0
  1
327
 41
0.9
 72
     1
 11
154.5906718093374
 21
785.9933616419491
 31
0.0
100
AcDbText
  0
POINT
  5
D0
330
1E
100
AcDbEntity
  8
DEFPOINTS
  6
CONTINUOUS
 62
     7
100
AcDbPoint
 10
-10.0
 20
232.999999999999
 30
0.0
  0
POINT
  5
D1
330
1E
100
AcDbEntity
  8
DEFPOINTS
  6
CONTINUOUS
 62
     7
100
AcDbPoint
 10
317.0
 20
337.999999999999
 30
0.0
  0
POINT
  5
D2
330
1E
100
AcDbEntity
  8
DEFPOINTS
  6
CONTINUOUS
 62
     7
100
AcDbPoint
 10
317.0
 20
765.9933616419491
 30
0.0
  0
LINE
  5
D3
330
1E
100
AcDbEntity
  8
SIZE
  6
CONTINUOUS
 62
    30
100
AcDbLine
 10
101.0
 20
255.9999999999991
 30
0.0
 11
101.0
 21
658.9482575164821
 31
0.0
  0
LINE
  5
D4
330
1E
100
AcDbEntity
  8
SIZE
  6
CONTINUOUS
 62
    30
100
AcDbLine
 10
171.0
 20
255.9999999999991
 30
0.0
 11
171.0
 21
658.9482575164821
 31
0.0
  0
LINE
  5
D5
330
1E
100
AcDbEntity
  8
SIZE
  6
CONTINUOUS
 62
    30
100
AcDbLine
 10
111.0
 20
628.9482575164822
 30
0.0
 11
161.0
 21
628.9482575164822
 31
0.0
  0
CIRCLE
  5
D6
330
1E
100
AcDbEntity
  8
SIZE
  6
CONTINUOUS
 62
    30
100
AcDbCircle
 10
101.0
 20
628.9482575164822
 30
0.0
 40
5.0
  0
LINE
  5
D7
330
1E
100
AcDbEntity
  8
SIZE
  6
CONTINUOUS
 62
    30
100
AcDbLine
 10
106.0
 20
628.9482575164822
 30
0.0
 11
111.0
 21
628.9482575164822
 31
0.0
  0
CIRCLE
  5
D8
330
1E
100
AcDbEntity
  8
SIZE
  6
CONTINUOUS
 62
    30
100
AcDbCircle
 10
171.0
 20
628.9482575164822
 30
0.0
 40
5.0
  0
LINE
  5
D9
330
1E
100
AcDbEntity
  8
SIZE
  6
CONTINUOUS
 62
    30
100
AcDbLine
 10
166.0
 20
628.9482575164822
 30
0.0
 11
161.0
 21
628.9482575164822
 31
0.0
  0
TEXT
  5
DA
330
1E
100
AcDbEntity
  8
SIZE
  6
CONTINUOUS
 62
    30
100
AcDbText
 10
89.37142857142857
 20
648.9482575164821
 30
0.0
 40
64.0
  1
70
 41
0.9
 72
     1
 11
136.0
 21
648.9482575164821
 31
0.0
100
AcDbText
  0
POINT
  5
DB
330
1E
100
AcDbEntity
  8
DEFPOINTS
  6
CONTINUOUS
 62
     7
100
AcDbPoint
 10
101.0
 20
235.999999999999
 30
0.0
  0
POINT
  5
DC
330
1E
100
AcDbEntity
  8
DEFPOINTS
  6
CONTINUOUS
 62
     7
100
AcDbPoint
 10
171.0
 20
235.999999999999
 30
0.0
  0
POINT
  5
DD
330
1E
100
AcDbEntity
  8
DEFPOINTS
  6
CONTINUOUS
 62
     7
100
AcDbPoint
 10
171.0
 20
628.9482575164822
 30
0.0
  0
LINE
  5
DE
330
1E
100
AcDbEntity
  8
SIZE
  6
CONTINUOUS
 62
    30
100
AcDbLine
 10
171.0
 20
255.9999999999991
 30
0.0
 11
171.0
 21
658.9482575164821
 31
0.0
  0
LINE
  5
DF
330
1E
100
AcDbEntity
  8
SIZE
  6
CONTINUOUS
 62
    30
100
AcDbLine
 10
317.0
 20
357.9999999999991
 30
0.0
 11
317.0
 21
658.9482575164821
 31
0.0
  0
LINE
  5
E0
330
1E
100
AcDbEntity
  8
SIZE
  6
CONTINUOUS
 62
    30
100
AcDbLine
 10
181.0
 20
628.9482575164822
 30
0.0
 11
307.0
 21
628.9482575164822
 31
0.0
  0
LINE
  5
E1
330
1E
100
AcDbEntity
  8
SIZE
  6
CONTINUOUS
 62
    30
100
AcDbLine
 10
317.0
 20
628.9482575164822
 30
0.0
 11
501.4
 21
628.9482575164822
 31
0.0
  0
CIRCLE
  5
E2
330
1E
100
AcDbEntity
  8
SIZE
  6
CONTINUOUS
 62
    30
100
AcDbCircle
 10
171.0
 20
628.9482575164822
 30
0.0
 40
5.0
  0
LINE
  5
E3
330
1E
100
AcDbEntity
  8
SIZE
  6
CONTINUOUS
 62
    30
100
AcDbLine
 10
176.0
 20
628.9482575164822
 30
0.0
 11
181.0
 21
628.9482575164822
 31
0.0
  0
CIRCLE
  5
E4
330
1E
100
AcDbEntity
  8
SIZE
  6
CONTINUOUS
 62
    30
100
AcDbCircle
 10
317.0
 20
628.9482575164822
 30
0.0
 40
5.0
  0
LINE
  5
E5
330
1E
100
AcDbEntity
  8
SIZE
  6
CONTINUOUS
 62
    30
100
AcDbLine
 10
312.0
 20
628.9482575164822
 30
0.0
 11
307.0
 21
628.9482575164822
 31
0.0
  0
TEXT
  5
E6
330
1E
100
AcDbEntity
  8
SIZE
  6
CONTINUOUS
 62
    30
100
AcDbText
 10
347.0
 20
648.9482575164821
 30
0.0
 40
64.0
  1
146
 41
0.9
 72
     1
 11
414.2
 21
648.9482575164821
 31
0.0
100
AcDbText
  0
POINT
  5
E7
330
1E
100
AcDbEntity
  8
DEFPOINTS
  6
CONTINUOUS
 62
     7
100
AcDbPoint
 10
171.0
 20
235.999999999999
 30
0.0
  0
POINT
  5
E8
330
1E
100
AcDbEntity
  8
DEFPOINTS
  6
CONTINUOUS
 62
     7
100
AcDbPoint
 10
317.0
 20
337.999999999999
 30
0.0
  0
POINT
  5
E9
330
1E
100
AcDbEntity
  8
DEFPOINTS
  6
CONTINUOUS
 62
     7
100
AcDbPoint
 10
317.0
 20
628.9482575164822
 30
0.0
  0
LINE
  5
EA
330
1E
100
AcDbEntity
  8
SIZE
  6
CONTINUOUS
 62
    30
100
AcDbLine
 10
-336.9999999999998
 20
337.999999999999
 30
0.0
 11
-456.7813479999998
 21
337.999999999999
 31
0.0
  0
LINE
  5
EB
330
1E
100
AcDbEntity
  8
SIZE
  6
CONTINUOUS
 62
    30
100
AcDbLine
 10
-220.0
 20
277.999999999999
 30
0.0
 11
-456.7813479999998
 21
277.999999999999
 31
0.0
  0
LINE
  5
EC
330
1E
100
AcDbEntity
  8
SIZE
  6
CONTINUOUS
 62
    30
100
AcDbLine
 10
-426.7813479999999
 20
287.999999999999
 30
0.0
 11
-426.7813479999999
 21
327.999999999999
 31
0.0
  0
LINE
  5
ED
330
1E
100
AcDbEntity
  8
SIZE
  6
CONTINUOUS
 62
    30
100
AcDbLine
 10
-426.7813479999999
 20
337.999999999999
 30
0.0
 11
-426.7813479999999
 21
481.2571428571419
 31
0.0
  0
CIRCLE
  5
EE
330
1E
100
AcDbEntity
  8
SIZE
  6
CONTINUOUS
 62
    30
100
AcDbCircle
 10
-426.7813479999999
 20
277.999999999999
 30
0.0
 40
5.0
  0
LINE
  5
EF
330
1E
100
AcDbEntity
  8
SIZE
  6
CONTINUOUS
 62
    30
100
AcDbLine
 10
-426.7813479999999
 20
282.999999999999
 30
0.0
 11
-426.7813479999999
 21
287.999999999999
 31
0.0
  0
CIRCLE
  5
F0
330
1E
100
AcDbEntity
  8
SIZE
  6
CONTINUOUS
 62
    30
100
AcDbCircle
 10
-426.7813479999999
 20
337.999999999999
 30
0.0
 40
5.0
  0
LINE
  5
F1
330
1E
100
AcDbEntity
  8
SIZE
  6
CONTINUOUS
 62
    30
100
AcDbLine
 10
-426.7813479999999
 20
332.999999999999
 30
0.0
 11
-426.7813479999999
 21
327.999999999999
 31
0.0
  0
TEXT
  5
F2
330
1E
100
AcDbEntity
  8
SIZE
  6
CONTINUOUS
 62
    30
100
AcDbText
 10
-446.7813479999999
 20
367.9999999999991
 30
0.0
 40
64.0
  1
60
 50
90.0
 41
0.9
 72
     1
 11
-446.7813479999999
 21
414.6285714285705
 31
0.0
100
AcDbText
  0
POINT
  5
F3
330
1E
100
AcDbEntity
  8
DEFPOINTS
  6
CONTINUOUS
 62
     7
100
AcDbPoint
 10
-316.9999999999999
 20
337.999999999999
 30
0.0
  0
POINT
  5
F4
330
1E
100
AcDbEntity
  8
DEFPOINTS
  6
CONTINUOUS
 62
     7
100
AcDbPoint
 10
-200.0
 20
277.999999999999
 30
0.0
  0
POINT
  5
F5
330
1E
100
AcDbEntity
  8
DEFPOINTS
  6
CONTINUOUS
 62
     7
100
AcDbPoint
 10
-426.7813479999999
 20
277.999999999999
 30
0.0
  0
LINE
  5
F6
330
1E
100
AcDbEntity
  8
SIZE
  6
CONTINUOUS
 62
    30
100
AcDbLine
 10
-336.9999999999998
 20
337.999999999999
 30
0.0
 11
-710.9832299999998
 21
337.999999999999
 31
0.0
  0
LINE
  5
F7
330
1E
100
AcDbEntity
  8
SIZE
  6
CONTINUOUS
 62
    30
100
AcDbLine
 10
-327.0
 20
147.9999999999994
 30
0.0
 11
-710.9832299999998
 21
147.9999999999995
 31
0.0
  0
LINE
  5
F8
330
1E
100
AcDbEntity
  8
SIZE
  6
CONTINUOUS
 62
    30
100
AcDbLine
 10
-680.9832299999998
 20
327.9999999999992
 30
0.0
 11
-680.9832299999998
 21
157.9999999999996
 31
0.0
  0
CIRCLE
  5
F9
330
1E
100
AcDbEntity
  8
SIZE
  6
CONTINUOUS
 62
    30
100
AcDbCircle
 10
-680.9832299999998
 20
337.999999999999
 30
0.0
 40
5.0
  0
LINE
  5
FA
330
1E
100
AcDbEntity
  8
SIZE
  6
CONTINUOUS
 62
    30
100
AcDbLine
 10
-680.9832299999998
 20
332.999999999999
 30
0.0
 11
-680.9832299999998
 21
327.999999999999
 31
0.0
  0
CIRCLE
  5
FB
330
1E
100
AcDbEntity
  8
SIZE
  6
CONTINUOUS
 62
    30
100
AcDbCircle
 10
-680.9832299999998
 20
147.9999999999995
 30
0.0
 40
5.0
  0
LINE
  5
FC
330
1E
100
AcDbEntity
  8
SIZE
  6
CONTINUOUS
 62
    30
100
AcDbLine
 10
-680.9832299999998
 20
152.9999999999995
 30
0.0
 11
-680.9832299999998
 21
157.9999999999996
 31
0.0
  0
TEXT
  5
FD
330
1E
100
AcDbEntity
  8
SIZE
  6
CONTINUOUS
 62
    30
100
AcDbText
 10
-700.9832299999998
 20
182.6575123455412
 30
0.0
 40
64.0
  1
190
 50
90.0
 41
0.9
 72
     1
 11
-700.9832299999998
 21
251.2289409169698
 31
0.0
100
AcDbText
  0
POINT
  5
FE
330
1E
100
AcDbEntity
  8
DEFPOINTS
  6
CONTINUOUS
 62
     7
100
AcDbPoint
 10
-316.9999999999999
 20
337.999999999999
 30
0.0
  0
POINT
  5
FF
330
1E
100
AcDbEntity
  8
DEFPOINTS
  6
CONTINUOUS
 62
     7
100
AcDbPoint
 10
-307.0
 20
147.9999999999994
 30
0.0
  0
POINT
  5
100
330
1E
100
AcDbEntity
  8
DEFPOINTS
  6
CONTINUOUS
 62
     7
100
AcDbPoint
 10
-680.9832299999998
 20
147.9999999999995
 30
0.0
  0
LINE
  5
101
330
1E
100
AcDbEntity
  8
SIZE
  6
CONTINUOUS
 62
    30
100
AcDbLine
 10
317.0
 20
357.9999999999991
 30
0.0
 11
317.0
 21
1022.184292370688
 31
0.0
  0
LINE
  5
102
330
1E
100
AcDbEntity
  8
SIZE
  6
CONTINUOUS
 62
    30
100
AcDbLine
 10
-190.0
 20
111.9999999999991
 30
0.0
 11
-189.9999999999998
 21
1022.184292370688
 31
0.0
  0
LINE
  5
103
330
1E
100
AcDbEntity
  8
SIZE
  6
CONTINUOUS
 62
    30
100
AcDbLine
 10
307.0
 20
992.1842923706879
 30
0.0
 11
-179.9999999999998
 21
992.1842923706879
 31
0.0
  0
CIRCLE
  5
104
330
1E
100
AcDbEntity
  8
SIZE
  6
CONTINUOUS
 62
    30
100
AcDbCircle
 10
317.0
 20
992.1842923706879
 30
0.0
 40
5.0
  0
LINE
  5
105
330
1E
100
AcDbEntity
  8
SIZE
  6
CONTINUOUS
 62
    30
100
AcDbLine
 10
312.0
 20
992.1842923706879
 30
0.0
 11
307.0
 21
992.1842923706879
 31
0.0
  0
CIRCLE
  5
106
330
1E
100
AcDbEntity
  8
SIZE
  6
CONTINUOUS
 62
    30
100
AcDbCircle
 10
-189.9999999999998
 20
992.1842923706879
 30
0.0
 40
5.0
  0
LINE
  5
107
330
1E
100
AcDbEntity
  8
SIZE
  6
CONTINUOUS
 62
    30
100
AcDbLine
 10
-184.9999999999998
 20
992.1842923706879
 30
0.0
 11
-179.9999999999998
 21
992.1842923706879
 31
0.0
  0
TEXT
  5
108
330
1E
100
AcDbEntity
  8
SIZE
  6
CONTINUOUS
 62
    30
100
AcDbText
 10
-9.985808460157315
 20
1012.184292370688
 30
0.0
 40
64.0
  1
507
 41
0.9
 72
     1
 11
64.07133439698553
 21
1012.184292370688
 31
0.0
100
AcDbText
  0
POINT
  5
109
330
1E
100
AcDbEntity
  8
DEFPOINTS
  6
CONTINUOUS
 62
     7
100
AcDbPoint
 10
317.0
 20
337.999999999999
 30
0.0
  0
POINT
  5
10A
330
1E
100
AcDbEntity
  8
DEFPOINTS
  6
CONTINUOUS
 62
     7
100
AcDbPoint
 10
-190.0
 20
91.99999999999908
 30
0.0
  0
POINT
  5
10B
330
1E
100
AcDbEntity
  8
DEFPOINTS
  6
CONTINUOUS
 62
     7
100
AcDbPoint
 10
-189.9999999999998
 20
992.1842923706879
 30
0.0
  0
LINE
  5
10C
330
1E
100
AcDbEntity
  8
SIZE
  6
CONTINUOUS
 62
    30
100
AcDbLine
 10
-335.0
 20
-20.00000000000044
 30
0.0
 11
-335.0
 21
-208.761564631879
 31
0.0
  0
LINE
  5
10D
330
1E
100
AcDbEntity
  8
SIZE
  6
CONTINUOUS
 62
    30
100
AcDbLine
 10
334.9999999999998
 20
-20.00000000000044
 30
0.0
 11
334.9999999999998
 21
-208.761564631879
 31
0.0
  0
LINE
  5
10E
330
1E
100
AcDbEntity
  8
SIZE
  6
CONTINUOUS
 62
    30
100
AcDbLine
 10
-325.0
 20
-178.761564631879
 30
0.0
 11
324.9999999999999
 21
-178.761564631879
 31
0.0
  0
CIRCLE
  5
10F
330
1E
100
AcDbEntity
  8
SIZE
  6
CONTINUOUS
 62
    30
100
AcDbCircle
 10
-335.0
 20
-178.761564631879
 30
0.0
 40
5.0
  0
LINE
  5
110
330
1E
100
AcDbEntity
  8
SIZE
  6
CONTINUOUS
 62
    30
100
AcDbLine
 10
-330.0
 20
-178.761564631879
 30
0.0
 11
-325.0
 21
-178.761564631879
 31
0.0
  0
CIRCLE
  5
111
330
1E
100
AcDbEntity
  8
SIZE
  6
CONTINUOUS
 62
    30
100
AcDbCircle
 10
334.9999999999998
 20
-178.761564631879
 30
0.0
 40
5.0
  0
LINE
  5
112
330
1E
100
AcDbEntity
  8
SIZE
  6
CONTINUOUS
 62
    30
100
AcDbLine
 10
329.9999999999998
 20
-178.761564631879
 30
0.0
 11
324.9999999999999
 21
-178.761564631879
 31
0.0
  0
TEXT
  5
113
330
1E
100
AcDbEntity
  8
SIZE
  6
CONTINUOUS
 62
    30
100
AcDbText
 10
-71.85361760171772
 20
-158.761564631879
 30
0.0
 40
64.0
  1
670
 41
0.9
 72
     1
 11
2.20352525542512
 21
-158.761564631879
 31
0.0
100
AcDbText
  0
POINT
  5
114
330
1E
100
AcDbEntity
  8
DEFPOINTS
  6
CONTINUOUS
 62
     7
100
AcDbPoint
 10
-335.0
 20
-0.0000000000004547
 30
0.0
  0
POINT
  5
115
330
1E
100
AcDbEntity
  8
DEFPOINTS
  6
CONTINUOUS
 62
     7
100
AcDbPoint
 10
334.9999999999998
 20
-0.0000000000004547
 30
0.0
  0
POINT
  5
116
330
1E
100
AcDbEntity
  8
DEFPOINTS
  6
CONTINUOUS
 62
     7
100
AcDbPoint
 10
334.9999999999998
 20
-178.761564631879
 30
0.0
  0
LINE
  5
117
330
1E
100
AcDbEntity
  8
SIZE
  6
CONTINUOUS
 62
    30
100
AcDbLine
 10
-355.0
 20
-20.00000000000044
 30
0.0
 11
-355.0
 21
-500.2444530000001
 31
0.0
  0
LINE
  5
118
330
1E
100
AcDbEntity
  8
SIZE
  6
CONTINUOUS
 62
    30
100
AcDbLine
 10
354.9999999999998
 20
-20.00000000000044
 30
0.0
 11
354.9999999999997
 21
-500.2444530000001
 31
0.0
  0
LINE
  5
119
330
1E
100
AcDbEntity
  8
SIZE
  6
CONTINUOUS
 62
    30
100
AcDbLine
 10
-345.0
 20
-470.2444530000001
 30
0.0
 11
344.9999999999997
 21
-470.2444530000001
 31
0.0
  0
CIRCLE
  5
11A
330
1E
100
AcDbEntity
  8
SIZE
  6
CONTINUOUS
 62
    30
100
AcDbCircle
 10
-355.0
 20
-470.2444530000001
 30
0.0
 40
5.0
  0
LINE
  5
11B
330
1E
100
AcDbEntity
  8
SIZE
  6
CONTINUOUS
 62
    30
100
AcDbLine
 10
-350.0
 20
-470.2444530000001
 30
0.0
 11
-345.0
 21
-470.2444530000001
 31
0.0
  0
CIRCLE
  5
11C
330
1E
100
AcDbEntity
  8
SIZE
  6
CONTINUOUS
 62
    30
100
AcDbCircle
 10
354.9999999999997
 20
-470.2444530000001
 30
0.0
 40
5.0
  0
LINE
  5
11D
330
1E
100
AcDbEntity
  8
SIZE
  6
CONTINUOUS
 62
    30
100
AcDbLine
 10
349.9999999999997
 20
-470.2444530000001
 30
0.0
 11
344.9999999999997
 21
-470.2444530000001
 31
0.0
  0
TEXT
  5
11E
330
1E
100
AcDbEntity
  8
SIZE
  6
CONTINUOUS
 62
    30
100
AcDbText
 10
-68.57142857142868
 20
-450.2444530000001
 30
0.0
 40
64.0
  1
710
 41
0.9
 72
     1
 11
-0.0000000000001137
 21
-450.2444530000001
 31
0.0
100
AcDbText
  0
POINT
  5
11F
330
1E
100
AcDbEntity
  8
DEFPOINTS
  6
CONTINUOUS
 62
     7
100
AcDbPoint
 10
-355.0
 20
-0.0000000000004547
 30
0.0
  0
POINT
  5
120
330
1E
100
AcDbEntity
  8
DEFPOINTS
  6
CONTINUOUS
 62
     7
100
AcDbPoint
 10
354.9999999999998
 20
-0.0000000000004547
 30
0.0
  0
POINT
  5
121
330
1E
100
AcDbEntity
  8
DEFPOINTS
  6
CONTINUOUS
 62
     7
100
AcDbPoint
 10
354.9999999999997
 20
-470.2444530000001
 30
0.0
  0
LINE
  5
122
330
1E
100
AcDbEntity
  8
SIZE
  6
CONTINUOUS
 62
    30
100
AcDbLine
 10
-287.0
 20
107.9999999999994
 30
0.0
 11
-287.0
 21
-626.4517531121874
 31
0.0
  0
LINE
  5
123
330
1E
100
AcDbEntity
  8
SIZE
  6
CONTINUOUS
 62
    30
100
AcDbLine
 10
286.9999999999998
 20
107.9999999999994
 30
0.0
 11
286.9999999999997
 21
-626.4517531121874
 31
0.0
  0
LINE
  5
124
330
1E
100
AcDbEntity
  8
SIZE
  6
CONTINUOUS
 62
    30
100
AcDbLine
 10
-277.0
 20
-596.4517531121872
 30
0.0
 11
276.9999999999999
 21
-596.4517531121872
 31
0.0
  0
CIRCLE
  5
125
330
1E
100
AcDbEntity
  8
SIZE
  6
CONTINUOUS
 62
    30
100
AcDbCircle
 10
-287.0
 20
-596.4517531121872
 30
0.0
 40
5.0
  0
LINE
  5
126
330
1E
100
AcDbEntity
  8
SIZE
  6
CONTINUOUS
 62
    30
100
AcDbLine
 10
-282.0
 20
-596.4517531121872
 30
0.0
 11
-277.0
 21
-596.4517531121872
 31
0.0
  0
CIRCLE
  5
127
330
1E
100
AcDbEntity
  8
SIZE
  6
CONTINUOUS
 62
    30
100
AcDbCircle
 10
286.9999999999997
 20
-596.4517531121872
 30
0.0
 40
5.0
  0
LINE
  5
128
330
1E
100
AcDbEntity
  8
SIZE
  6
CONTINUOUS
 62
    30
100
AcDbLine
 10
281.9999999999997
 20
-596.4517531121872
 30
0.0
 11
276.9999999999997
 21
-596.4517531121872
 31
0.0
  0
TEXT
  5
129
330
1E
100
AcDbEntity
  8
SIZE
  6
CONTINUOUS
 62
    30
100
AcDbText
 10
-75.4285714285715
 20
-576.4517531121872
 30
0.0
 40
64.0
  1
574
 41
0.9
 72
     1
 11
-0.0000000000000853
 21
-576.4517531121872
 31
0.0
100
AcDbText
  0
POINT
  5
12A
330
1E
100
AcDbEntity
  8
DEFPOINTS
  6
CONTINUOUS
 62
     7
100
AcDbPoint
 10
-287.0
 20
127.9999999999995
 30
0.0
  0
POINT
  5
12B
330
1E
100
AcDbEntity
  8
DEFPOINTS
  6
CONTINUOUS
 62
     7
100
AcDbPoint
 10
286.9999999999998
 20
127.9999999999995
 30
0.0
  0
POINT
  5
12C
330
1E
100
AcDbEntity
  8
DEFPOINTS
  6
CONTINUOUS
 62
     7
100
AcDbPoint
 10
286.9999999999997
 20
-596.4517531121872
 30
0.0
  0
LINE
  5
12D
330
1E
100
AcDbEntity
  8
SIZE
  6
CONTINUOUS
 62
    30
100
AcDbLine
 10
-335.0
 20
-20.00000000000044
 30
0.0
 11
-335.0
 21
-208.761564631879
 31
0.0
  0
LINE
  5
12E
330
1E
100
AcDbEntity
  8
SIZE
  6
CONTINUOUS
 62
    30
100
AcDbLine
 10
-355.0
 20
-20.00000000000044
 30
0.0
 11
-355.0
 21
-208.761564631879
 31
0.0
  0
LINE
  5
12F
330
1E
100
AcDbEntity
  8
SIZE
  6
CONTINUOUS
 62
    30
100
AcDbLine
 10
-325.0
 20
-178.761564631879
 30
0.0
 11
-315.0
 21
-178.761564631879
 31
0.0
  0
LINE
  5
130
330
1E
100
AcDbEntity
  8
SIZE
  6
CONTINUOUS
 62
    30
100
AcDbLine
 10
-365.0
 20
-178.761564631879
 30
0.0
 11
-508.2571428571427
 21
-178.761564631879
 31
0.0
  0
LINE
  5
131
330
1E
100
AcDbEntity
  8
SIZE
  6
CONTINUOUS
 62
    30
100
AcDbLine
 10
-335.0
 20
-178.761564631879
 30
0.0
 11
-355.0
 21
-178.761564631879
 31
0.0
  0
CIRCLE
  5
132
330
1E
100
AcDbEntity
  8
SIZE
  6
CONTINUOUS
 62
    30
100
AcDbCircle
 10
-335.0
 20
-178.761564631879
 30
0.0
 40
5.0
  0
LINE
  5
133
330
1E
100
AcDbEntity
  8
SIZE
  6
CONTINUOUS
 62
    30
100
AcDbLine
 10
-330.0
 20
-178.761564631879
 30
0.0
 11
-325.0
 21
-178.761564631879
 31
0.0
  0
CIRCLE
  5
134
330
1E
100
AcDbEntity
  8
SIZE
  6
CONTINUOUS
 62
    30
100
AcDbCircle
 10
-355.0
 20
-178.761564631879
 30
0.0
 40
5.0
  0
LINE
  5
135
330
1E
100
AcDbEntity
  8
SIZE
  6
CONTINUOUS
 62
    30
100
AcDbLine
 10
-360.0
 20
-178.761564631879
 30
0.0
 11
-365.0
 21
-178.761564631879
 31
0.0
  0
TEXT
  5
136
330
1E
100
AcDbEntity
  8
SIZE
  6
CONTINUOUS
 62
    30
100
AcDbText
 10
-488.2571428571428
 20
-158.761564631879
 30
0.0
 40
64.0
  1
20
 41
0.9
 72
     1
 11
-441.6285714285713
 21
-158.761564631879
 31
0.0
100
AcDbText
  0
POINT
  5
137
330
1E
100
AcDbEntity
  8
DEFPOINTS
  6
CONTINUOUS
 62
     7
100
AcDbPoint
 10
-335.0
 20
-0.0000000000004547
 30
0.0
  0
POINT
  5
138
330
1E
100
AcDbEntity
  8
DEFPOINTS
  6
CONTINUOUS
 62
     7
100
AcDbPoint
 10
-355.0
 20
-0.0000000000004547
 30
0.0
  0
POINT
  5
139
330
1E
100
AcDbEntity
  8
DEFPOINTS
  6
CONTINUOUS
 62
     7
100
AcDbPoint
 10
-355.0
 20
-178.761564631879
 30
0.0
  0
LINE
  5
13A
330
1E
100
AcDbEntity
  8
SIZE
  6
CONTINUOUS
 62
    30
100
AcDbLine
 10
334.9999999999998
 20
-20.00000000000044
 30
0.0
 11
334.9999999999998
 21
-208.761564631879
 31
0.0
  0
LINE
  5
13B
330
1E
100
AcDbEntity
  8
SIZE
  6
CONTINUOUS
 62
    30
100
AcDbLine
 10
354.9999999999998
 20
-20.00000000000044
 30
0.0
 11
354.9999999999998
 21
-208.761564631879
 31
0.0
  0
LINE
  5
13C
330
1E
100
AcDbEntity
  8
SIZE
  6
CONTINUOUS
 62
    30
100
AcDbLine
 10
324.9999999999999
 20
-178.761564631879
 30
0.0
 11
314.9999999999999
 21
-178.761564631879
 31
0.0
  0
LINE
  5
13D
330
1E
100
AcDbEntity
  8
SIZE
  6
CONTINUOUS
 62
    30
100
AcDbLine
 10
364.9999999999999
 20
-178.761564631879
 30
0.0
 11
508.2571428571426
 21
-178.761564631879
 31
0.0
  0
LINE
  5
13E
330
1E
100
AcDbEntity
  8
SIZE
  6
CONTINUOUS
 62
    30
100
AcDbLine
 10
334.9999999999998
 20
-178.761564631879
 30
0.0
 11
354.9999999999998
 21
-178.761564631879
 31
0.0
  0
CIRCLE
  5
13F
330
1E
100
AcDbEntity
  8
SIZE
  6
CONTINUOUS
 62
    30
100
AcDbCircle
 10
334.9999999999998
 20
-178.761564631879
 30
0.0
 40
5.0
  0
LINE
  5
140
330
1E
100
AcDbEntity
  8
SIZE
  6
CONTINUOUS
 62
    30
100
AcDbLine
 10
329.9999999999998
 20
-178.761564631879
 30
0.0
 11
324.9999999999999
 21
-178.761564631879
 31
0.0
  0
CIRCLE
  5
141
330
1E
100
AcDbEntity
  8
SIZE
  6
CONTINUOUS
 62
    30
100
AcDbCircle
 10
354.9999999999998
 20
-178.761564631879
 30
0.0
 40
5.0
  0
LINE
  5
142
330
1E
100
AcDbEntity
  8
SIZE
  6
CONTINUOUS
 62
    30
100
AcDbLine
 10
359.9999999999998
 20
-178.761564631879
 30
0.0
 11
364.9999999999999
 21
-178.761564631879
 31
0.0
  0
TEXT
  5
143
330
1E
100
AcDbEntity
  8
SIZE
  6
CONTINUOUS
 62
    30
100
AcDbText
 10
394.9999999999998
 20
-158.761564631879
 30
0.0
 40
64.0
  1
20
 41
0.9
 72
     1
 11
441.6285714285712
 21
-158.761564631879
 31
0.0
100
AcDbText
  0
POINT
  5
144
330
1E
100
AcDbEntity
  8
DEFPOINTS
  6
CONTINUOUS
 62
     7
100
AcDbPoint
 10
334.9999999999998
 20
-0.0000000000004547
 30
0.0
  0
POINT
  5
145
330
1E
100
AcDbEntity
  8
DEFPOINTS
  6
CONTINUOUS
 62
     7
100
AcDbPoint
 10
354.9999999999998
 20
-0.0000000000004547
 30
0.0
  0
POINT
  5
146
330
1E
100
AcDbEntity
  8
DEFPOINTS
  6
CONTINUOUS
 62
     7
100
AcDbPoint
 10
354.9999999999998
 20
-178.761564631879
 30
0.0
  0
TEXT
  5
147
330
1E
100
AcDbEntity
  8
NOTE
  6
CONTINUOUS
 62
     4
100
AcDbText
 10
-395.4357898086731
 20
-726.9687669260937
 30
0.0
 40
64.0
  1
(Lifting bolt pitch)
 41
0.9
100
AcDbText
  0
TEXT
  5
148
330
1E
100
AcDbEntity
  8
NOTE
  6
CONTINUOUS
 62
     4
100
AcDbText
 10
-349.5131711366342
 20
-292.1555987204928
 30
0.0
 40
64.0
  1
(Ceiling opening)
 41
0.9
100
AcDbText
  0
LINE
  5
149
330
1E
100
AcDbEntity
  8
SIZE
  6
CONTINUOUS
 62
    30
100
AcDbLine
 10
-336.9999999999998
 20
337.999999999999
 30
0.0
 11
-817.1445359999999
 21
337.9999999999991
 31
0.0
  0
LINE
  5
14A
330
1E
100
AcDbEntity
  8
SIZE
  6
CONTINUOUS
 62
    30
100
AcDbLine
 10
-230.0
 20
71.99999999999912
 30
0.0
 11
-817.1445359999999
 21
71.99999999999929
 31
0.0
  0
LINE
  5
14B
330
1E
100
AcDbEntity
  8
SIZE
  6
CONTINUOUS
 62
    30
100
AcDbLine
 10
-787.1445359999999
 20
327.9999999999992
 30
0.0
 11
-787.144536
 21
81.99999999999922
 31
0.0
  0
CIRCLE
  5
14C
330
1E
100
AcDbEntity
  8
SIZE
  6
CONTINUOUS
 62
    30
100
AcDbCircle
 10
-787.1445359999999
 20
337.9999999999991
 30
0.0
 40
5.0
  0
LINE
  5
14D
330
1E
100
AcDbEntity
  8
SIZE
  6
CONTINUOUS
 62
    30
100
AcDbLine
 10
-787.1445359999999
 20
332.9999999999992
 30
0.0
 11
-787.1445359999999
 21
327.9999999999992
 31
0.0
  0
CIRCLE
  5
14E
330
1E
100
AcDbEntity
  8
SIZE
  6
CONTINUOUS
 62
    30
100
AcDbCircle
 10
-787.144536
 20
71.99999999999924
 30
0.0
 40
5.0
  0
LINE
  5
14F
330
1E
100
AcDbEntity
  8
SIZE
  6
CONTINUOUS
 62
    30
100
AcDbLine
 10
-787.144536
 20
76.99999999999923
 30
0.0
 11
-787.144536
 21
81.99999999999922
 31
0.0
  0
TEXT
  5
150
330
1E
100
AcDbEntity
  8
SIZE
  6
CONTINUOUS
 62
    30
100
AcDbText
 10
-807.144536
 20
132.1616541931348
 30
0.0
 40
64.0
  1
266
 50
90.0
 41
0.9
 72
     1
 11
-807.144536
 21
204.8473684788491
 31
0.0
100
AcDbText
  0
POINT
  5
151
330
1E
100
AcDbEntity
  8
DEFPOINTS
  6
CONTINUOUS
 62
     7
100
AcDbPoint
 10
-316.9999999999999
 20
337.999999999999
 30
0.0
  0
POINT
  5
152
330
1E
100
AcDbEntity
  8
DEFPOINTS
  6
CONTINUOUS
 62
     7
100
AcDbPoint
 10
-210.0
 20
71.99999999999909
 30
0.0
  0
POINT
  5
153
330
1E
100
AcDbEntity
  8
DEFPOINTS
  6
CONTINUOUS
 62
     7
100
AcDbPoint
 10
-787.144536
 20
71.99999999999924
 30
0.0
  0
LINE
  5
154
330
1E
100
AcDbEntity
  8
SIZE
  6
CONTINUOUS
 62
    30
100
AcDbLine
 10
-336.9999999999998
 20
338.0
 30
0.0
 11
-947.9697359999997
 21
338.0000000000003
 31
0.0
  0
LINE
  5
155
330
1E
100
AcDbEntity
  8
SIZE
  6
CONTINUOUS
 62
    30
100
AcDbLine
 10
-336.9999999999998
 20
48.0
 30
0.0
 11
-947.9697360000001
 21
48.00000000000018
 31
0.0
  0
LINE
  5
156
330
1E
100
AcDbEntity
  8
SIZE
  6
CONTINUOUS
 62
    30
100
AcDbLine
 10
-917.9697359999996
 20
328.0000000000002
 30
0.0
 11
-917.9697359999996
 21
58.00000000000017
 31
0.0
  0
CIRCLE
  5
157
330
1E
100
AcDbEntity
  8
SIZE
  6
CONTINUOUS
 62
    30
100
AcDbCircle
 10
-917.9697359999996
 20
338.0000000000003
 30
0.0
 40
5.0
  0
LINE
  5
158
330
1E
100
AcDbEntity
  8
SIZE
  6
CONTINUOUS
 62
    30
100
AcDbLine
 10
-917.9697359999996
 20
333.0000000000002
 30
0.0
 11
-917.9697359999996
 21
328.0000000000002
 31
0.0
  0
CIRCLE
  5
159
330
1E
100
AcDbEntity
  8
SIZE
  6
CONTINUOUS
 62
    30
100
AcDbCircle
 10
-917.9697359999996
 20
48.00000000000017
 30
0.0
 40
5.0
  0
LINE
  5
15A
330
1E
100
AcDbEntity
  8
SIZE
  6
CONTINUOUS
 62
    30
100
AcDbLine
 10
-917.9697359999996
 20
53.00000000000017
 30
0.0
 11
-917.9697359999996
 21
58.00000000000017
 31
0.0
  0
TEXT
  5
15B
330
1E
100
AcDbEntity
  8
SIZE
  6
CONTINUOUS
 62
    30
100
AcDbText
 10
-937.9697359999999
 20
125.3357481747817
 30
0.0
 40
64.0
  1
290
 50
90.0
 41
0.9
 72
     1
 11
-937.9697359999999
 21
199.3928910319246
 31
0.0
100
AcDbText
  0
POINT
  5
15C
330
1E
100
AcDbEntity
  8
DEFPOINTS
  6
CONTINUOUS
 62
     7
100
AcDbPoint
 10
-316.9999999999999
 20
338.0
 30
0.0
  0
POINT
  5
15D
330
1E
100
AcDbEntity
  8
DEFPOINTS
  6
CONTINUOUS
 62
     7
100
AcDbPoint
 10
-316.9999999999999
 20
48.0
 30
0.0
  0
POINT
  5
15E
330
1E
100
AcDbEntity
  8
DEFPOINTS
  6
CONTINUOUS
 62
     7
100
AcDbPoint
 10
-917.9697359999996
 20
48.00000000000017
 30
0.0
  0
LINE
  5
15F
330
1E
100
AcDbEntity
  8
SIZE
  6
CONTINUOUS
 62
    30
100
AcDbLine
 10
-415.0
 20
-0.0000000000004491
 30
0.0
 11
-689.922606
 21
-0.0000000000003712
 31
0.0
  0
LINE
  5
160
330
1E
100
AcDbEntity
  8
SIZE
  6
CONTINUOUS
 62
    30
100
AcDbLine
 10
-336.9999999999998
 20
45.0
 30
0.0
 11
-689.922606
 21
45.00000000000009
 31
0.0
  0
LINE
  5
161
330
1E
100
AcDbEntity
  8
SIZE
  6
CONTINUOUS
 62
    30
100
AcDbLine
 10
-659.9226059999998
 20
55.0000000000001
 30
0.0
 11
-659.9226059999998
 21
65.0000000000001
 31
0.0
  0
LINE
  5
162
330
1E
100
AcDbEntity
  8
SIZE
  6
CONTINUOUS
 62
    30
100
AcDbLine
 10
-659.9226059999998
 20
-10.00000000000036
 30
0.0
 11
-659.9226059999998
 21
-153.2571428571431
 31
0.0
  0
LINE
  5
163
330
1E
100
AcDbEntity
  8
SIZE
  6
CONTINUOUS
 62
    30
100
AcDbLine
 10
-659.9226059999998
 20
45.00000000000009
 30
0.0
 11
-659.9226059999998
 21
-0.0000000000003797
 31
0.0
  0
CIRCLE
  5
164
330
1E
100
AcDbEntity
  8
SIZE
  6
CONTINUOUS
 62
    30
100
AcDbCircle
 10
-659.9226059999998
 20
45.00000000000009
 30
0.0
 40
5.0
  0
LINE
  5
165
330
1E
100
AcDbEntity
  8
SIZE
  6
CONTINUOUS
 62
    30
100
AcDbLine
 10
-659.9226059999998
 20
50.00000000000009
 30
0.0
 11
-659.9226059999998
 21
55.00000000000009
 31
0.0
  0
CIRCLE
  5
166
330
1E
100
AcDbEntity
  8
SIZE
  6
CONTINUOUS
 62
    30
100
AcDbCircle
 10
-659.9226059999998
 20
-0.0000000000003797
 30
0.0
 40
5.0
  0
LINE
  5
167
330
1E
100
AcDbEntity
  8
SIZE
  6
CONTINUOUS
 62
    30
100
AcDbLine
 10
-659.9226059999998
 20
-5.00000000000038
 30
0.0
 11
-659.9226059999998
 21
-10.00000000000037
 31
0.0
  0
TEXT
  5
168
330
1E
100
AcDbEntity
  8
SIZE
  6
CONTINUOUS
 62
    30
100
AcDbText
 10
-679.9226059999998
 20
-133.2571428571432
 30
0.0
 40
64.0
  1
45
 50
90.0
 41
0.9
 72
     1
 11
-679.9226059999998
 21
-86.62857142857188
 31
0.0
100
AcDbText
  0
POINT
  5
169
330
1E
100
AcDbEntity
  8
DEFPOINTS
  6
CONTINUOUS
 62
     7
100
AcDbPoint
 10
-395.0
 20
-0.0000000000004547
 30
0.0
  0
POINT
  5
16A
330
1E
100
AcDbEntity
  8
DEFPOINTS
  6
CONTINUOUS
 62
     7
100
AcDbPoint
 10
-316.9999999999999
 20
45.0
 30
0.0
  0
POINT
  5
16B
330
1E
100
AcDbEntity
  8
DEFPOINTS
  6
CONTINUOUS
 62
     7
100
AcDbPoint
 10
-659.9226059999998
 20
45.00000000000009
 30
0.0
  0
LINE
  5
16C
330
1E
100
AcDbEntity
  8
SIZE
  6
CONTINUOUS
 62
    30
100
AcDbLine
 10
297.0
 20
337.999999999999
 30
0.0
 11
202.0931343391949
 21
337.999999999999
 31
0.0
  0
LINE
  5
16D
330
1E
100
AcDbEntity
  8
SIZE
  6
CONTINUOUS
 62
    30
100
AcDbLine
 10
211.0
 20
215.9999999999989
 30
0.0
 11
262.0931343391948
 21
215.9999999999989
 31
0.0
  0
LINE
  5
16E
330
1E
100
AcDbEntity
  8
SIZE
  6
CONTINUOUS
 62
    30
100
AcDbLine
 10
232.0931343391948
 20
225.999999999999
 30
0.0
 11
232.0931343391948
 21
327.9999999999989
 31
0.0
  0
LINE
  5
16F
330
1E
100
AcDbEntity
  8
SIZE
  6
CONTINUOUS
 62
    30
100
AcDbLine
 10
232.0931343391948
 20
337.999999999999
 30
0.0
 11
232.0931343391948
 21
525.1428571428562
 31
0.0
  0
CIRCLE
  5
170
330
1E
100
AcDbEntity
  8
SIZE
  6
CONTINUOUS
 62
    30
100
AcDbCircle
 10
232.0931343391948
 20
215.9999999999989
 30
0.0
 40
5.0
  0
LINE
  5
171
330
1E
100
AcDbEntity
  8
SIZE
  6
CONTINUOUS
 62
    30
100
AcDbLine
 10
232.0931343391948
 20
220.999999999999
 30
0.0
 11
232.0931343391948
 21
225.999999999999
 31
0.0
  0
CIRCLE
  5
172
330
1E
100
AcDbEntity
  8
SIZE
  6
CONTINUOUS
 62
    30
100
AcDbCircle
 10
232.0931343391948
 20
337.999999999999
 30
0.0
 40
5.0
  0
LINE
  5
173
330
1E
100
AcDbEntity
  8
SIZE
  6
CONTINUOUS
 62
    30
100
AcDbLine
 10
232.0931343391948
 20
332.999999999999
 30
0.0
 11
232.0931343391948
 21
327.999999999999
 31
0.0
  0
TEXT
  5
174
330
1E
100
AcDbEntity
  8
SIZE
  6
CONTINUOUS
 62
    30
100
AcDbText
 10
212.0931343391947
 20
367.999999999999
 30
0.0
 40
64.0
  1
122
 50
90.0
 41
0.9
 72
     1
 11
212.0931343391947
 21
436.5714285714275
 31
0.0
100
AcDbText
  0
POINT
  5
175
330
1E
100
AcDbEntity
  8
DEFPOINTS
  6
CONTINUOUS
 62
     7
100
AcDbPoint
 10
317.0
 20
337.999999999999
 30
0.0
  0
POINT
  5
176
330
1E
100
AcDbEntity
  8
DEFPOINTS
  6
CONTINUOUS
 62
     7
100
AcDbPoint
 10
191.0
 20
215.9999999999989
 30
0.0
  0
POINT
  5
177
330
1E
100
AcDbEntity
  8
DEFPOINTS
  6
CONTINUOUS
 62
     7
100
AcDbPoint
 10
232.0931343391948
 20
215.9999999999989
 30
0.0
  0
LINE
  5
178
330
1E
100
AcDbEntity
  8
SIZE
  6
CONTINUOUS
 62
    30
100
AcDbLine
 10
297.0
 20
337.999999999999
 30
0.0
 11
-10.48057925682404
 21
337.999999999999
 31
0.0
  0
LINE
  5
179
330
1E
100
AcDbEntity
  8
SIZE
  6
CONTINUOUS
 62
    30
100
AcDbLine
 10
30.0
 20
212.9999999999991
 30
0.0
 11
49.51942074317596
 21
212.9999999999991
 31
0.0
  0
LINE
  5
17A
330
1E
100
AcDbEntity
  8
SIZE
  6
CONTINUOUS
 62
    30
100
AcDbLine
 10
19.51942074317596
 20
222.9999999999991
 30
0.0
 11
19.51942074317598
 21
327.999999999999
 31
0.0
  0
LINE
  5
17B
330
1E
100
AcDbEntity
  8
SIZE
  6
CONTINUOUS
 62
    30
100
AcDbLine
 10
19.51942074317599
 20
337.999999999999
 30
0.0
 11
19.51942074317603
 21
538.5384663819341
 31
0.0
  0
CIRCLE
  5
17C
330
1E
100
AcDbEntity
  8
SIZE
  6
CONTINUOUS
 62
    30
100
AcDbCircle
 10
19.51942074317596
 20
212.9999999999991
 30
0.0
 40
5.0
  0
LINE
  5
17D
330
1E
100
AcDbEntity
  8
SIZE
  6
CONTINUOUS
 62
    30
100
AcDbLine
 10
19.51942074317596
 20
217.999999999999
 30
0.0
 11
19.51942074317596
 21
222.9999999999991
 31
0.0
  0
CIRCLE
  5
17E
330
1E
100
AcDbEntity
  8
SIZE
  6
CONTINUOUS
 62
    30
100
AcDbCircle
 10
19.51942074317599
 20
337.999999999999
 30
0.0
 40
5.0
  0
LINE
  5
17F
330
1E
100
AcDbEntity
  8
SIZE
  6
CONTINUOUS
 62
    30
100
AcDbLine
 10
19.51942074317599
 20
332.999999999999
 30
0.0
 11
19.51942074317599
 21
327.999999999999
 31
0.0
  0
TEXT
  5
180
330
1E
100
AcDbEntity
  8
SIZE
  6
CONTINUOUS
 62
    30
100
AcDbText
 10
-0.480579256824062
 20
381.395609239077
 30
0.0
 40
64.0
  1
125
 50
90.0
 41
0.9
 72
     1
 11
-0.4805792568240578
 21
449.9670378105055
 31
0.0
100
AcDbText
  0
POINT
  5
181
330
1E
100
AcDbEntity
  8
DEFPOINTS
  6
CONTINUOUS
 62
     7
100
AcDbPoint
 10
317.0
 20
337.999999999999
 30
0.0
  0
POINT
  5
182
330
1E
100
AcDbEntity
  8
DEFPOINTS
  6
CONTINUOUS
 62
     7
100
AcDbPoint
 10
10.0
 20
212.9999999999991
 30
0.0
  0
POINT
  5
183
330
1E
100
AcDbEntity
  8
DEFPOINTS
  6
CONTINUOUS
 62
     7
100
AcDbPoint
 10
19.51942074317596
 20
212.9999999999991
 30
0.0
  0
LINE
  5
184
330
1E
100
AcDbEntity
  8
SIZE
  6
CONTINUOUS
 62
    30
100
AcDbLine
 10
-296.9999999999998
 20
338.0
 30
0.0
 11
-53.9074370334255
 21
337.9999999999999
 31
0.0
  0
LINE
  5
185
330
1E
100
AcDbEntity
  8
SIZE
  6
CONTINUOUS
 62
    30
100
AcDbLine
 10
-68.0
 20
212.9999999999991
 30
0.0
 11
-53.90743703342558
 21
212.999999999999
 31
0.0
  0
LINE
  5
186
330
1E
100
AcDbEntity
  8
SIZE
  6
CONTINUOUS
 62
    30
100
AcDbLine
 10
-83.90743703342558
 20
222.9999999999991
 30
0.0
 11
-83.90743703342556
 21
327.9999999999998
 31
0.0
  0
LINE
  5
187
330
1E
100
AcDbEntity
  8
SIZE
  6
CONTINUOUS
 62
    30
100
AcDbLine
 10
-83.90743703342556
 20
337.9999999999999
 30
0.0
 11
-83.90743703342549
 21
538.5298718837539
 31
0.0
  0
CIRCLE
  5
188
330
1E
100
AcDbEntity
  8
SIZE
  6
CONTINUOUS
 62
    30
100
AcDbCircle
 10
-83.90743703342558
 20
212.9999999999991
 30
0.0
 40
5.0
  0
LINE
  5
189
330
1E
100
AcDbEntity
  8
SIZE
  6
CONTINUOUS
 62
    30
100
AcDbLine
 10
-83.90743703342558
 20
217.999999999999
 30
0.0
 11
-83.90743703342558
 21
222.9999999999991
 31
0.0
  0
CIRCLE
  5
18A
330
1E
100
AcDbEntity
  8
SIZE
  6
CONTINUOUS
 62
    30
100
AcDbCircle
 10
-83.90743703342556
 20
337.9999999999999
 30
0.0
 40
5.0
  0
LINE
  5
18B
330
1E
100
AcDbEntity
  8
SIZE
  6
CONTINUOUS
 62
    30
100
AcDbLine
 10
-83.90743703342556
 20
332.9999999999998
 30
0.0
 11
-83.90743703342556
 21
327.9999999999998
 31
0.0
  0
TEXT
  5
18C
330
1E
100
AcDbEntity
  8
SIZE
  6
CONTINUOUS
 62
    30
100
AcDbText
 10
-103.9074370334255
 20
381.387014740897
 30
0.0
 40
64.0
  1
125
 50
90.0
 41
0.9
 72
     1
 11
-103.9074370334255
 21
449.9584433123255
 31
0.0
100
AcDbText
  0
POINT
  5
18D
330
1E
100
AcDbEntity
  8
DEFPOINTS
  6
CONTINUOUS
 62
     7
100
AcDbPoint
 10
-316.9999999999999
 20
338.0
 30
0.0
  0
POINT
  5
18E
330
1E
100
AcDbEntity
  8
DEFPOINTS
  6
CONTINUOUS
 62
     7
100
AcDbPoint
 10
-88.0
 20
212.9999999999991
 30
0.0
  0
POINT
  5
18F
330
1E
100
AcDbEntity
  8
DEFPOINTS
  6
CONTINUOUS
 62
     7
100
AcDbPoint
 10
-83.90743703342558
 20
212.9999999999991
 30
0.0
  0
LINE
  5
190
330
1E
100
AcDbEntity
  8
SIZE
  6
CONTINUOUS
 62
    30
100
AcDbLine
 10
297.0
 20
337.999999999999
 30
0.0
 11
79.20146393623331
 21
337.999999999999
 31
0.0
  0
LINE
  5
191
330
1E
100
AcDbEntity
  8
SIZE
  6
CONTINUOUS
 62
    30
100
AcDbLine
 10
101.0
 20
215.9999999999989
 30
0.0
 11
79.20146393623328
 21
215.9999999999989
 31
0.0
  0
LINE
  5
192
330
1E
100
AcDbEntity
  8
SIZE
  6
CONTINUOUS
 62
    30
100
AcDbLine
 10
109.2014639362331
 20
225.999999999999
 30
0.0
 11
109.2014639362332
 21
327.999999999999
 31
0.0
  0
LINE
  5
193
330
1E
100
AcDbEntity
  8
SIZE
  6
CONTINUOUS
 62
    30
100
AcDbLine
 10
109.2014639362332
 20
337.999999999999
 30
0.0
 11
109.2014639362332
 21
525.1428571428562
 31
0.0
  0
CIRCLE
  5
194
330
1E
100
AcDbEntity
  8
SIZE
  6
CONTINUOUS
 62
    30
100
AcDbCircle
 10
109.2014639362331
 20
215.9999999999989
 30
0.0
 40
5.0
  0
LINE
  5
195
330
1E
100
AcDbEntity
  8
SIZE
  6
CONTINUOUS
 62
    30
100
AcDbLine
 10
109.2014639362331
 20
220.999999999999
 30
0.0
 11
109.2014639362331
 21
225.999999999999
 31
0.0
  0
CIRCLE
  5
196
330
1E
100
AcDbEntity
  8
SIZE
  6
CONTINUOUS
 62
    30
100
AcDbCircle
 10
109.2014639362332
 20
337.999999999999
 30
0.0
 40
5.0
  0
LINE
  5
197
330
1E
100
AcDbEntity
  8
SIZE
  6
CONTINUOUS
 62
    30
100
AcDbLine
 10
109.2014639362332
 20
332.999999999999
 30
0.0
 11
109.2014639362332
 21
327.999999999999
 31
0.0
  0
TEXT
  5
198
330
1E
100
AcDbEntity
  8
SIZE
  6
CONTINUOUS
 62
    30
100
AcDbText
 10
89.20146393623326
 20
367.999999999999
 30
0.0
 40
64.0
  1
122
 50
90.0
 41
0.9
 72
     1
 11
89.20146393623326
 21
436.5714285714275
 31
0.0
100
AcDbText
  0
POINT
  5
199
330
1E
100
AcDbEntity
  8
DEFPOINTS
  6
CONTINUOUS
 62
     7
100
AcDbPoint
 10
317.0
 20
337.999999999999
 30
0.0
  0
POINT
  5
19A
330
1E
100
AcDbEntity
  8
DEFPOINTS
  6
CONTINUOUS
 62
     7
100
AcDbPoint
 10
121.0
 20
215.9999999999989
 30
0.0
  0
POINT
  5
19B
330
1E
100
AcDbEntity
  8
DEFPOINTS
  6
CONTINUOUS
 62
     7
100
AcDbPoint
 10
109.2014639362331
 20
215.9999999999989
 30
0.0
  0
LINE
  5
19C
330
1E
100
AcDbEntity
  8
NOTE
  6
CONTINUOUS
 62
     4
100
AcDbLine
 10
317.0
 20
283.9999999999994
 30
0.0
 11
317.0
 21
323.9999999999994
 31
0.0
  0
LINE
  5
19D
330
1E
100
AcDbEntity
  8
NOTE
  6
CONTINUOUS
 62
     4
100
AcDbLine
 10
297.0
 20
303.9999999999995
 30
0.0
 11
337.0
 21
303.9999999999995
 31
0.0
  0
LINE
  5
19E
330
1E
100
AcDbEntity
  8
NOTE
  6
CONTINUOUS
 62
     4
100
AcDbLine
 10
317.0
 20
124.9999999999995
 30
0.0
 11
317.0
 21
164.9999999999994
 31
0.0
  0
LINE
  5
19F
330
1E
100
AcDbEntity
  8
NOTE
  6
CONTINUOUS
 62
     4
100
AcDbLine
 10
297.0
 20
144.9999999999994
 30
0.0
 11
337.0
 21
144.9999999999994
 31
0.0
  0
LINE
  5
1A0
330
1E
100
AcDbEntity
  8
SIZE
  6
CONTINUOUS
 62
    30
100
AcDbLine
 10
337.0
 20
337.999999999999
 30
0.0
 11
629.4499953371873
 21
337.9999999999989
 31
0.0
  0
LINE
  5
1A1
330
1E
100
AcDbEntity
  8
SIZE
  6
CONTINUOUS
 62
    30
100
AcDbLine
 10
357.0
 20
303.9999999999995
 30
0.0
 11
629.4499953371873
 21
303.9999999999995
 31
0.0
  0
LINE
  5
1A2
330
1E
100
AcDbEntity
  8
SIZE
  6
CONTINUOUS
 62
    30
100
AcDbLine
 10
599.4499953371872
 20
293.9999999999995
 30
0.0
 11
599.4499953371872
 21
283.9999999999993
 31
0.0
  0
LINE
  5
1A3
330
1E
100
AcDbEntity
  8
SIZE
  6
CONTINUOUS
 62
    30
100
AcDbLine
 10
599.4499953371872
 20
347.9999999999989
 30
0.0
 11
599.4499953371872
 21
493.9999999999989
 31
0.0
  0
LINE
  5
1A4
330
1E
100
AcDbEntity
  8
SIZE
  6
CONTINUOUS
 62
    30
100
AcDbLine
 10
599.4499953371872
 20
303.9999999999995
 30
0.0
 11
599.4499953371872
 21
337.9999999999989
 31
0.0
  0
CIRCLE
  5
1A5
330
1E
100
AcDbEntity
  8
SIZE
  6
CONTINUOUS
 62
    30
100
AcDbCircle
 10
599.4499953371872
 20
303.9999999999995
 30
0.0
 40
5.0
  0
LINE
  5
1A6
330
1E
100
AcDbEntity
  8
SIZE
  6
CONTINUOUS
 62
    30
100
AcDbLine
 10
599.4499953371872
 20
298.9999999999994
 30
0.0
 11
599.4499953371872
 21
293.9999999999995
 31
0.0
  0
CIRCLE
  5
1A7
330
1E
100
AcDbEntity
  8
SIZE
  6
CONTINUOUS
 62
    30
100
AcDbCircle
 10
599.4499953371872
 20
337.9999999999989
 30
0.0
 40
5.0
  0
LINE
  5
1A8
330
1E
100
AcDbEntity
  8
SIZE
  6
CONTINUOUS
 62
    30
100
AcDbLine
 10
599.4499953371872
 20
342.9999999999989
 30
0.0
 11
599.4499953371872
 21
347.9999999999989
 31
0.0
  0
TEXT
  5
1A9
330
1E
100
AcDbEntity
  8
SIZE
  6
CONTINUOUS
 62
    30
100
AcDbText
 10
579.4499953371869
 20
377.9999999999989
 30
0.0
 40
64.0
  1
34
 50
90.0
 41
0.9
 72
     1
 11
579.4499953371869
 21
425.9999999999989
 31
0.0
100
AcDbText
  0
POINT
  5
1AA
330
1E
100
AcDbEntity
  8
DEFPOINTS
  6
CONTINUOUS
 62
     7
100
AcDbPoint
 10
317.0
 20
337.999999999999
 30
0.0
  0
POINT
  5
1AB
330
1E
100
AcDbEntity
  8
DEFPOINTS
  6
CONTINUOUS
 62
     7
100
AcDbPoint
 10
337.0
 20
303.9999999999995
 30
0.0
  0
POINT
  5
1AC
330
1E
100
AcDbEntity
  8
DEFPOINTS
  6
CONTINUOUS
 62
     7
100
AcDbPoint
 10
599.4499953371872
 20
303.9999999999995
 30
0.0
  0
LINE
  5
1AD
330
1E
100
AcDbEntity
  8
SIZE
  6
CONTINUOUS
 62
    30
100
AcDbLine
 10
357.0
 20
303.9999999999995
 30
0.0
 11
629.4499953371869
 21
303.9999999999995
 31
0.0
  0
LINE
  5
1AE
330
1E
100
AcDbEntity
  8
SIZE
  6
CONTINUOUS
 62
    30
100
AcDbLine
 10
357.0
 20
144.9999999999994
 30
0.0
 11
629.4499953371869
 21
144.9999999999993
 31
0.0
  0
LINE
  5
1AF
330
1E
100
AcDbEntity
  8
SIZE
  6
CONTINUOUS
 62
    30
100
AcDbLine
 10
599.4499953371869
 20
313.9999999999993
 30
0.0
 11
599.4499953371869
 21
323.9999999999993
 31
0.0
  0
LINE
  5
1B0
330
1E
100
AcDbEntity
  8
SIZE
  6
CONTINUOUS
 62
    30
100
AcDbLine
 10
599.4499953371869
 20
134.9999999999994
 30
0.0
 11
599.4499953371869
 21
124.9999999999994
 31
0.0
  0
LINE
  5
1B1
330
1E
100
AcDbEntity
  8
SIZE
  6
CONTINUOUS
 62
    30
100
AcDbLine
 10
599.4499953371869
 20
303.9999999999995
 30
0.0
 11
599.4499953371869
 21
144.9999999999993
 31
0.0
  0
CIRCLE
  5
1B2
330
1E
100
AcDbEntity
  8
SIZE
  6
CONTINUOUS
 62
    30
100
AcDbCircle
 10
599.4499953371869
 20
303.9999999999995
 30
0.0
 40
5.0
  0
LINE
  5
1B3
330
1E
100
AcDbEntity
  8
SIZE
  6
CONTINUOUS
 62
    30
100
AcDbLine
 10
599.4499953371869
 20
308.9999999999994
 30
0.0
 11
599.4499953371869
 21
313.9999999999994
 31
0.0
  0
CIRCLE
  5
1B4
330
1E
100
AcDbEntity
  8
SIZE
  6
CONTINUOUS
 62
    30
100
AcDbCircle
 10
599.4499953371869
 20
144.9999999999993
 30
0.0
 40
5.0
  0
LINE
  5
1B5
330
1E
100
AcDbEntity
  8
SIZE
  6
CONTINUOUS
 62
    30
100
AcDbLine
 10
599.4499953371869
 20
139.9999999999994
 30
0.0
 11
599.4499953371869
 21
134.9999999999994
 31
0.0
  0
TEXT
  5
1B6
330
1E
100
AcDbEntity
  8
SIZE
  6
CONTINUOUS
 62
    30
100
AcDbText
 10
579.4499953371869
 20
157.2999999999994
 30
0.0
 40
64.0
  1
159
 50
90.0
 41
0.9
 72
     1
 11
579.4499953371869
 21
224.4999999999994
 31
0.0
100
AcDbText
  0
POINT
  5
1B7
330
1E
100
AcDbEntity
  8
DEFPOINTS
  6
CONTINUOUS
 62
     7
100
AcDbPoint
 10
337.0
 20
303.9999999999995
 30
0.0
  0
POINT
  5
1B8
330
1E
100
AcDbEntity
  8
DEFPOINTS
  6
CONTINUOUS
 62
     7
100
AcDbPoint
 10
337.0
 20
144.9999999999994
 30
0.0
  0
POINT
  5
1B9
330
1E
100
AcDbEntity
  8
DEFPOINTS
  6
CONTINUOUS
 62
     7
100
AcDbPoint
 10
599.4499953371869
 20
144.9999999999993
 30
0.0
  0
LINE
  5
1BA
330
1E
100
AcDbEntity
  8
NOTE
  6
CONTINUOUS
 62
     4
100
AcDbLine
 10
-337.0
 20
144.9999999999994
 30
0.0
 11
-297.0
 21
144.9999999999994
 31
0.0
  0
LINE
  5
1BB
330
1E
100
AcDbEntity
  8
NOTE
  6
CONTINUOUS
 62
     4
100
AcDbLine
 10
-317.0
 20
124.9999999999995
 30
0.0
 11
-317.0
 21
164.9999999999994
 31
0.0
  0
LINE
  5
1BC
330
1E
100
AcDbEntity
  8
NOTE
  6
CONTINUOUS
 62
     4
100
AcDbLine
 10
-317.0
 20
283.9999999999994
 30
0.0
 11
-317.0
 21
323.9999999999994
 31
0.0
  0
LINE
  5
1BD
330
1E
100
AcDbEntity
  8
NOTE
  6
CONTINUOUS
 62
     4
100
AcDbLine
 10
-337.0
 20
303.9999999999995
 30
0.0
 11
-297.0
 21
303.9999999999995
 31
0.0
  0
LINE
  5
1BE
330
1E
100
AcDbEntity
  8
SIZE
  6
CONTINUOUS
 62
    30
100
AcDbLine
 10
-336.9999999999998
 20
337.999999999999
 30
0.0
 11
-570.3454379999995
 21
337.999999999999
 31
0.0
  0
LINE
  5
1BF
330
1E
100
AcDbEntity
  8
SIZE
  6
CONTINUOUS
 62
    30
100
AcDbLine
 10
-357.0
 20
303.9999999999995
 30
0.0
 11
-570.3454379999995
 21
303.9999999999996
 31
0.0
  0
LINE
  5
1C0
330
1E
100
AcDbEntity
  8
SIZE
  6
CONTINUOUS
 62
    30
100
AcDbLine
 10
-540.3454379999997
 20
293.9999999999995
 30
0.0
 11
-540.3454379999997
 21
283.9999999999994
 31
0.0
  0
LINE
  5
1C1
330
1E
100
AcDbEntity
  8
SIZE
  6
CONTINUOUS
 62
    30
100
AcDbLine
 10
-540.3454379999997
 20
347.9999999999991
 30
0.0
 11
-540.3454379999997
 21
493.9999999999991
 31
0.0
  0
LINE
  5
1C2
330
1E
100
AcDbEntity
  8
SIZE
  6
CONTINUOUS
 62
    30
100
AcDbLine
 10
-540.3454379999997
 20
303.9999999999996
 30
0.0
 11
-540.3454379999997
 21
337.999999999999
 31
0.0
  0
CIRCLE
  5
1C3
330
1E
100
AcDbEntity
  8
SIZE
  6
CONTINUOUS
 62
    30
100
AcDbCircle
 10
-540.3454379999997
 20
303.9999999999996
 30
0.0
 40
5.0
  0
LINE
  5
1C4
330
1E
100
AcDbEntity
  8
SIZE
  6
CONTINUOUS
 62
    30
100
AcDbLine
 10
-540.3454379999997
 20
298.9999999999996
 30
0.0
 11
-540.3454379999997
 21
293.9999999999995
 31
0.0
  0
CIRCLE
  5
1C5
330
1E
100
AcDbEntity
  8
SIZE
  6
CONTINUOUS
 62
    30
100
AcDbCircle
 10
-540.3454379999997
 20
337.999999999999
 30
0.0
 40
5.0
  0
LINE
  5
1C6
330
1E
100
AcDbEntity
  8
SIZE
  6
CONTINUOUS
 62
    30
100
AcDbLine
 10
-540.3454379999997
 20
342.999999999999
 30
0.0
 11
-540.3454379999997
 21
347.9999999999991
 31
0.0
  0
TEXT
  5
1C7
330
1E
100
AcDbEntity
  8
SIZE
  6
CONTINUOUS
 62
    30
100
AcDbText
 10
-560.3454379999998
 20
377.9999999999989
 30
0.0
 40
64.0
  1
34
 50
90.0
 41
0.9
 72
     1
 11
-560.3454379999998
 21
425.9999999999989
 31
0.0
100
AcDbText
  0
POINT
  5
1C8
330
1E
100
AcDbEntity
  8
DEFPOINTS
  6
CONTINUOUS
 62
     7
100
AcDbPoint
 10
-316.9999999999999
 20
337.999999999999
 30
0.0
  0
POINT
  5
1C9
330
1E
100
AcDbEntity
  8
DEFPOINTS
  6
CONTINUOUS
 62
     7
100
AcDbPoint
 10
-337.0
 20
303.9999999999995
 30
0.0
  0
POINT
  5
1CA
330
1E
100
AcDbEntity
  8
DEFPOINTS
  6
CONTINUOUS
 62
     7
100
AcDbPoint
 10
-540.3454379999997
 20
303.9999999999996
 30
0.0
  0
LINE
  5
1CB
330
1E
100
AcDbEntity
  8
SIZE
  6
CONTINUOUS
 62
    30
100
AcDbLine
 10
-357.0
 20
303.9999999999995
 30
0.0
 11
-570.3454379999995
 21
303.9999999999996
 31
0.0
  0
LINE
  5
1CC
330
1E
100
AcDbEntity
  8
SIZE
  6
CONTINUOUS
 62
    30
100
AcDbLine
 10
-357.0
 20
144.9999999999994
 30
0.0
 11
-570.3454379999998
 21
144.9999999999994
 31
0.0
  0
LINE
  5
1CD
330
1E
100
AcDbEntity
  8
SIZE
  6
CONTINUOUS
 62
    30
100
AcDbLine
 10
-540.3454379999997
 20
313.9999999999996
 30
0.0
 11
-540.3454379999997
 21
323.9999999999996
 31
0.0
  0
LINE
  5
1CE
330
1E
100
AcDbEntity
  8
SIZE
  6
CONTINUOUS
 62
    30
100
AcDbLine
 10
-540.3454379999998
 20
134.9999999999994
 30
0.0
 11
-540.3454379999998
 21
124.9999999999995
 31
0.0
  0
LINE
  5
1CF
330
1E
100
AcDbEntity
  8
SIZE
  6
CONTINUOUS
 62
    30
100
AcDbLine
 10
-540.3454379999997
 20
303.9999999999996
 30
0.0
 11
-540.3454379999998
 21
144.9999999999994
 31
0.0
  0
CIRCLE
  5
1D0
330
1E
100
AcDbEntity
  8
SIZE
  6
CONTINUOUS
 62
    30
100
AcDbCircle
 10
-540.3454379999997
 20
303.9999999999996
 30
0.0
 40
5.0
  0
LINE
  5
1D1
330
1E
100
AcDbEntity
  8
SIZE
  6
CONTINUOUS
 62
    30
100
AcDbLine
 10
-540.3454379999997
 20
308.9999999999996
 30
0.0
 11
-540.3454379999997
 21
313.9999999999996
 31
0.0
  0
CIRCLE
  5
1D2
330
1E
100
AcDbEntity
  8
SIZE
  6
CONTINUOUS
 62
    30
100
AcDbCircle
 10
-540.3454379999998
 20
144.9999999999994
 30
0.0
 40
5.0
  0
LINE
  5
1D3
330
1E
100
AcDbEntity
  8
SIZE
  6
CONTINUOUS
 62
    30
100
AcDbLine
 10
-540.3454379999998
 20
139.9999999999994
 30
0.0
 11
-540.3454379999998
 21
134.9999999999994
 31
0.0
  0
TEXT
  5
1D4
330
1E
100
AcDbEntity
  8
SIZE
  6
CONTINUOUS
 62
    30
100
AcDbText
 10
-560.3454379999998
 20
157.2999999999994
 30
0.0
 40
64.0
  1
159
 50
90.0
 41
0.9
 72
     1
 11
-560.3454379999998
 21
224.4999999999994
 31
0.0
100
AcDbText
  0
POINT
  5
1D5
330
1E
100
AcDbEntity
  8
DEFPOINTS
  6
CONTINUOUS
 62
     7
100
AcDbPoint
 10
-337.0
 20
303.9999999999995
 30
0.0
  0
POINT
  5
1D6
330
1E
100
AcDbEntity
  8
DEFPOINTS
  6
CONTINUOUS
 62
     7
100
AcDbPoint
 10
-337.0
 20
144.9999999999994
 30
0.0
  0
POINT
  5
1D7
330
1E
100
AcDbEntity
  8
DEFPOINTS
  6
CONTINUOUS
 62
     7
100
AcDbPoint
 10
-540.3454379999998
 20
144.9999999999994
 30
0.0
  0
LINE
  5
1D8
330
1E
100
AcDbEntity
  8
NOTE
  6
CONTINUOUS
 62
     4
100
AcDbLine
 10
316.9999999999995
 20
303.9999999999995
 30
0.0
 11
740.7301471927675
 21
30.13020332884433
 31
0.0
  0
TEXT
  5
1D9
330
1E
100
AcDbEntity
  8
NOTE
  6
CONTINUOUS
 62
     4
100
AcDbText
 10
771.4151456414547
 20
50.5655680765135
 30
0.0
 40
64.0
  1
10-%%c2.9
 41
0.9
100
AcDbText
  0
LINE
  5
1DA
330
1E
100
AcDbEntity
  8
NOTE
  6
CONTINUOUS
 62
     4
100
AcDbLine
 10
740.7301471927675
 20
30.13020332884433
 30
0.0
 11
1146.990342192766
 21
30.13020332884433
 31
0.0
  0
LWPOLYLINE
  5
1DB
330
1E
100
AcDbEntity
  8
NOTE
  6
CONTINUOUS
 62
     4
100
AcDbPolyline
 90
        3
 70
     0
 43
0.0
 10
355.036681370698
 20
291.622160941285
 10
316.9999999999987
 20
304.0
 10
343.751811758024
 20
274.2621364561096
  0
LINE
  5
1E0
330
1E
100
AcDbEntity
  8
NOTE
  6
CONTINUOUS
 62
     4
100
AcDbLine
 10
-316.9999999999995
 20
303.9999999999995
 30
0.0
 11
-895.0410381702216
 21
-98.78159007354135
 31
0.0
  0
LWPOLYLINE
  5
1E1
330
1E
100
AcDbEntity
  8
NOTE
  6
CONTINUOUS
 62
     4
100
AcDbPolyline
 90
        3
 70
     0
 43
0.0
 10
-354.5831720767247
 20
290.3067459634044
 10
-316.9999999999987
 20
304.0
 10
-342.7013537076017
 20
273.3497083523088
  0
LINE
  5
1E6
330
1E
100
AcDbEntity
  8
NOTE
  6
CONTINUOUS
 62
     4
100
AcDbLine
 10
-895.0410381702216
 20
-98.78159007354135
 30
0.0
 11
-1321.30123317022
 21
-98.78159007354135
 31
0.0
  0
TEXT
  5
1E7
330
1E
100
AcDbEntity
  8
NOTE
  6
CONTINUOUS
 62
     4
100
AcDbText
 10
-1285.23381630491
 20
-76.68033140531678
 30
0.0
 40
64.0
  1
10-%%c2.9
 41
0.9
100
AcDbText
  0
CIRCLE
  5
1E8
330
1E
100
AcDbEntity
  8
DETAIL
  6
CONTINUOUS
 62
     5
100
AcDbCircle
 10
-180.0
 20
277.999999999999
 30
0.0
 40
12.5
  0
CIRCLE
  5
1E9
330
1E
100
AcDbEntity
  8
DETAIL
  6
CONTINUOUS
 62
     5
100
AcDbCircle
 10
-190.0
 20
71.99999999999909
 30
0.0
 40
12.5
  0
CIRCLE
  5
1EA
330
1E
100
AcDbEntity
  8
DETAIL
  6
CONTINUOUS
 62
     5
100
AcDbCircle
 10
-68.0
 20
212.9999999999991
 30
0.0
 40
12.5
  0
CIRCLE
  5
1EB
330
1E
100
AcDbEntity
  8
DETAIL
  6
CONTINUOUS
 62
     5
100
AcDbCircle
 10
-9.999999999999648
 20
212.9999999999991
 30
0.0
 40
12.5
  0
LINE
  5
1EC
330
1E
100
AcDbEntity
  8
DETAIL
  6
CONTINUOUS
 62
     5
100
AcDbLine
 10
30.0
 20
156.0799999999994
 30
0.0
 11
-108.0
 21
156.0799999999994
 31
0.0
  0
LINE
  5
1ED
330
1E
100
AcDbEntity
  8
SIZE
  6
CONTINUOUS
 62
    30
100
AcDbLine
 10
286.9999999999998
 20
107.9999999999994
 30
0.0
 11
286.9999999999997
 21
-626.4517531121874
 31
0.0
  0
LINE
  5
1EE
330
1E
100
AcDbEntity
  8
SIZE
  6
CONTINUOUS
 62
    30
100
AcDbLine
 10
334.9999999999998
 20
-20.00000000000044
 30
0.0
 11
334.9999999999997
 21
-626.4517531121874
 31
0.0
  0
LINE
  5
1EF
330
1E
100
AcDbEntity
  8
SIZE
  6
CONTINUOUS
 62
    30
100
AcDbLine
 10
276.9999999999999
 20
-596.4517531121872
 30
0.0
 11
266.9999999999999
 21
-596.4517531121872
 31
0.0
  0
LINE
  5
1F0
330
1E
100
AcDbEntity
  8
SIZE
  6
CONTINUOUS
 62
    30
100
AcDbLine
 10
344.9999999999997
 20
-596.4517531121872
 30
0.0
 11
488.2571428571425
 21
-596.4517531121872
 31
0.0
  0
LINE
  5
1F1
330
1E
100
AcDbEntity
  8
SIZE
  6
CONTINUOUS
 62
    30
100
AcDbLine
 10
286.9999999999997
 20
-596.4517531121872
 30
0.0
 11
334.9999999999997
 21
-596.4517531121872
 31
0.0
  0
CIRCLE
  5
1F2
330
1E
100
AcDbEntity
  8
SIZE
  6
CONTINUOUS
 62
    30
100
AcDbCircle
 10
286.9999999999997
 20
-596.4517531121872
 30
0.0
 40
5.0
  0
LINE
  5
1F3
330
1E
100
AcDbEntity
  8
SIZE
  6
CONTINUOUS
 62
    30
100
AcDbLine
 10
281.9999999999997
 20
-596.4517531121872
 30
0.0
 11
276.9999999999997
 21
-596.4517531121872
 31
0.0
  0
CIRCLE
  5
1F4
330
1E
100
AcDbEntity
  8
SIZE
  6
CONTINUOUS
 62
    30
100
AcDbCircle
 10
334.9999999999997
 20
-596.4517531121872
 30
0.0
 40
5.0
  0
LINE
  5
1F5
330
1E
100
AcDbEntity
  8
SIZE
  6
CONTINUOUS
 62
    30
100
AcDbLine
 10
339.9999999999997
 20
-596.4517531121872
 30
0.0
 11
344.9999999999997
 21
-596.4517531121872
 31
0.0
  0
TEXT
  5
1F6
330
1E
100
AcDbEntity
  8
SIZE
  6
CONTINUOUS
 62
    30
100
AcDbText
 10
374.9999999999997
 20
-576.4517531121872
 30
0.0
 40
64.0
  1
48
 41
0.9
 72
     1
 11
421.6285714285711
 21
-576.4517531121872
 31
0.0
100
AcDbText
  0
POINT
  5
1F7
330
1E
100
AcDbEntity
  8
DEFPOINTS
  6
CONTINUOUS
 62
     7
100
AcDbPoint
 10
286.9999999999998
 20
127.9999999999995
 30
0.0
  0
POINT
  5
1F8
330
1E
100
AcDbEntity
  8
DEFPOINTS
  6
CONTINUOUS
 62
     7
100
AcDbPoint
 10
334.9999999999998
 20
-0.0000000000004547
 30
0.0
  0
POINT
  5
1F9
330
1E
100
AcDbEntity
  8
DEFPOINTS
  6
CONTINUOUS
 62
     7
100
AcDbPoint
 10
334.9999999999997
 20
-596.4517531121872
 30
0.0
  0
LINE
  5
1FA
330
1E
100
AcDbEntity
  8
SIZE
  6
CONTINUOUS
 62
    30
100
AcDbLine
 10
-287.0
 20
107.9999999999994
 30
0.0
 11
-287.0
 21
-626.4517531121874
 31
0.0
  0
LINE
  5
1FB
330
1E
100
AcDbEntity
  8
SIZE
  6
CONTINUOUS
 62
    30
100
AcDbLine
 10
-335.0
 20
-20.00000000000044
 30
0.0
 11
-335.0
 21
-626.4517531121874
 31
0.0
  0
LINE
  5
1FC
330
1E
100
AcDbEntity
  8
SIZE
  6
CONTINUOUS
 62
    30
100
AcDbLine
 10
-277.0
 20
-596.4517531121872
 30
0.0
 11
-267.0
 21
-596.4517531121872
 31
0.0
  0
LINE
  5
1FD
330
1E
100
AcDbEntity
  8
SIZE
  6
CONTINUOUS
 62
    30
100
AcDbLine
 10
-345.0
 20
-596.4517531121872
 30
0.0
 11
-488.2571428571428
 21
-596.4517531121872
 31
0.0
  0
LINE
  5
1FE
330
1E
100
AcDbEntity
  8
SIZE
  6
CONTINUOUS
 62
    30
100
AcDbLine
 10
-287.0
 20
-596.4517531121872
 30
0.0
 11
-335.0
 21
-596.4517531121872
 31
0.0
  0
CIRCLE
  5
1FF
330
1E
100
AcDbEntity
  8
SIZE
  6
CONTINUOUS
 62
    30
100
AcDbCircle
 10
-287.0
 20
-596.4517531121872
 30
0.0
 40
5.0
  0
LINE
  5
200
330
1E
100
AcDbEntity
  8
SIZE
  6
CONTINUOUS
 62
    30
100
AcDbLine
 10
-282.0
 20
-596.4517531121872
 30
0.0
 11
-277.0
 21
-596.4517531121872
 31
0.0
  0
CIRCLE
  5
201
330
1E
100
AcDbEntity
  8
SIZE
  6
CONTINUOUS
 62
    30
100
AcDbCircle
 10
-335.0
 20
-596.4517531121872
 30
0.0
 40
5.0
  0
LINE
  5
202
330
1E
100
AcDbEntity
  8
SIZE
  6
CONTINUOUS
 62
    30
100
AcDbLine
 10
-340.0
 20
-596.4517531121872
 30
0.0
 11
-345.0
 21
-596.4517531121872
 31
0.0
  0
TEXT
  5
203
330
1E
100
AcDbEntity
  8
SIZE
  6
CONTINUOUS
 62
    30
100
AcDbText
 10
-468.2571428571429
 20
-576.4517531121872
 30
0.0
 40
64.0
  1
48
 41
0.9
 72
     1
 11
-421.6285714285715
 21
-576.4517531121872
 31
0.0
100
AcDbText
  0
POINT
  5
204
330
1E
100
AcDbEntity
  8
DEFPOINTS
  6
CONTINUOUS
 62
     7
100
AcDbPoint
 10
-287.0
 20
127.9999999999995
 30
0.0
  0
POINT
  5
205
330
1E
100
AcDbEntity
  8
DEFPOINTS
  6
CONTINUOUS
 62
     7
100
AcDbPoint
 10
-335.0
 20
-0.0000000000004547
 30
0.0
  0
POINT
  5
206
330
1E
100
AcDbEntity
  8
DEFPOINTS
  6
CONTINUOUS
 62
     7
100
AcDbPoint
 10
-335.0
 20
-596.4517531121872
 30
0.0
  0
CIRCLE
  5
207
330
1E
100
AcDbEntity
  8
DETAIL
  6
CONTINUOUS
 62
     5
100
AcDbCircle
 10
101.0
 20
215.9999999999989
 30
0.0
 40
4.759999999999998
  0
CIRCLE
  5
208
330
1E
100
AcDbEntity
  8
DETAIL
  6
CONTINUOUS
 62
     5
100
AcDbCircle
 10
171.0
 20
215.9999999999989
 30
0.0
 40
7.94
  0
LINE
  5
209
330
1E
100
AcDbEntity
  8
OUTLINE
  6
CONTINUOUS
 62
     3
100
AcDbLine
 10
348.0
 20
-8.0
 30
0.0
 11
-348.0
 21
-8.0
 31
0.0
  0
LINE
  5
20A
330
1E
100
AcDbEntity
  8
OUTLINE
  6
CONTINUOUS
 62
     3
100
AcDbLine
 10
355.0
 20
0.0
 30
0.0
 11
-355.0
 21
0.0
 31
0.0
  0
LINE
  5
20B
330
1E
100
AcDbEntity
  8
OUTLINE
  6
CONTINUOUS
 62
     3
100
AcDbLine
 10
317.0
 20
338.0
 30
0.0
 11
-317.0
 21
338.0
 31
0.0
  0
LINE
  5
20C
330
1E
100
AcDbEntity
  8
OUTLINE
  6
CONTINUOUS
 62
     3
100
AcDbLine
 10
-317.0
 20
0.0
 30
0.0
 11
-317.0
 21
338.0
 31
0.0
  0
LINE
  5
20D
330
1E
100
AcDbEntity
  8
OUTLINE
  6
CONTINUOUS
 62
     3
100
AcDbLine
 10
-355.0
 20
-1.0
 30
0.0
 11
-355.0
 21
0.0
 31
0.0
  0
ARC
  5
20E
330
1E
100
AcDbEntity
  8
OUTLINE
  6
CONTINUOUS
 62
     3
100
AcDbCircle
 10
-348.0
 20
-1.0
 30
0.0
 40
7.0
100
AcDbArc
 50
180.0
 51
270.0
  0
LINE
  5
20F
330
1E
100
AcDbEntity
  8
OUTLINE
  6
CONTINUOUS
 62
     3
100
AcDbLine
 10
317.0
 20
0.0
 30
0.0
 11
317.0
 21
338.0
 31
0.0
  0
LINE
  5
210
330
1E
100
AcDbEntity
  8
OUTLINE
  6
CONTINUOUS
 62
     3
100
AcDbLine
 10
355.0
 20
-1.0
 30
0.0
 11
355.0
 21
0.0
 31
0.0
  0
ARC
  5
211
330
1E
100
AcDbEntity
  8
OUTLINE
  6
CONTINUOUS
 62
     3
100
AcDbCircle
 10
348.0
 20
-1.0
 30
0.0
 40
7.0
100
AcDbArc
 50
270.0
 51
0.0
  0
TEXT
  5
212
330
1E
100
AcDbEntity
  8
NOTE
  6
CONTINUOUS
 62
     4
100
AcDbText
 10
704.7625215271783
 20
307.1133859395195
 30
0.0
 40
64.0
  1
The other outdoor unit : %%c19.05
 41
0.9
100
AcDbText
  0
TEXT
  5
213
330
1E
100
AcDbEntity
  8
NOTE
  6
CONTINUOUS
 62
     4
100
AcDbText
 10
717.1839870744353
 20
620.4069437049106
 30
0.0
 40
64.0
  1
RG %%c15.88
 41
0.9
100
AcDbText
  0
TEXT
  5
214
330
1E
100
AcDbEntity
  8
NOTE
  6
CONTINUOUS
 62
     4
100
AcDbText
 10
714.1231554931636
 20
445.6648060480837
 30
0.0
 40
64.0
  1
R410A outdoor unit : %%c15.88
 41
0.9
100
AcDbText
  0
LINE
  5
215
330
1E
100
AcDbEntity
  8
NOTE
  6
CONTINUOUS
 62
     4
100
AcDbLine
 10
571.4635719578263
 20
583.6427345296132
 30
0.0
 11
1290.676758957825
 21
583.6427345296132
 31
0.0
  0
LINE
  5
216
330
1E
100
AcDbEntity
  8
NOTE
  6
CONTINUOUS
 62
     4
100
AcDbLine
 10
-287.0
 20
147.9999999999994
 30
0.0
 11
-951.2013625932947
 21
-329.2126493344949
 31
0.0
  0
LINE
  5
217
330
1E
100
AcDbEntity
  8
NOTE
  6
CONTINUOUS
 62
     4
100
AcDbLine
 10
-951.2013625932947
 20
-329.2126493344949
 30
0.0
 11
-1617.461557593295
 21
-329.2126493344949
 31
0.0
  0
TEXT
  5
218
330
1E
100
AcDbEntity
  8
NOTE
  6
CONTINUOUS
 62
     4
100
AcDbText
 10
-1553.081187301922
 20
-302.3118934893158
 30
0.0
 40
64.0
  1
AH 4-14X30
 41
0.9
100
AcDbText
  0
LWPOLYLINE
  5
219
330
1E
100
AcDbEntity
  8
NOTE
  6
CONTINUOUS
 62
     4
100
AcDbPolyline
 90
        3
 70
     0
 43
0.0
 10
-324.4991716818258
 20
134.0783574451278
 10
-287.0
 20
147.9999999999994
 10
-312.5144141467253
 20
117.1939176291894
  0
ENDSEC
  0
SECTION
  2
OBJECTS
  0
DICTIONARY
  5
C
330
0
100
AcDbDictionary
  3
ACAD_GROUP
350
D
  3
ACAD_LAYOUT
350
19
  3
ACAD_MLINESTYLE
350
16
  3
ACAD_PLOTSETTINGS
350
18
  3
ACAD_PLOTSTYLENAME
350
E
  3
ACDBHEADERROUNDTRIPXREC
350
220
  0
DICTIONARY
  5
243
330
1E
100
AcDbDictionary
280
     1
  3
ACAD_LAYOUTSELFREF
360
244
  0
DICTIONARY
  5
241
330
1A
100
AcDbDictionary
280
     1
  3
ACAD_LAYOUTSELFREF
360
242
  0
DICTIONARY
  5
D
102
{ACAD_REACTORS
330
C
102
}
330
C
100
AcDbDictionary
  0
DICTIONARY
  5
19
102
{ACAD_REACTORS
330
C
102
}
330
C
100
AcDbDictionary
  0
DICTIONARY
  5
16
102
{ACAD_REACTORS
330
C
102
}
330
C
100
AcDbDictionary
  3
STANDARD
350
17
  0
DICTIONARY
  5
18
102
{ACAD_REACTORS
330
C
102
}
330
C
100
AcDbDictionary
  0
ACDBDICTIONARYWDFLT
  5
E
102
{ACAD_REACTORS
330
C
102
}
330
C
100
AcDbDictionary
281
     1
  3
Normal
350
F
100
AcDbDictionaryWithDefault
340
F
  0
DICTIONARY
  5
220
102
{ACAD_REACTORS
330
C
102
}
330
C
100
AcDbDictionary
  3
CEPSNTYPE
350
22A
  3
DIMSTYLEDATA
350
22E
  3
FINGERPRINTGUID
350
22B
  3
HYPERLINKBASE
350
223
  3
INSUNITS
350
229
  3
LAYOUTDICT
350
225
  3
LWETCUNION
350
228
  3
PLOTSETDICT
350
226
  3
PLOTSTYLNAMDICT
350
227
  3
PSVPSCALE
350
22D
  3
PUCSBASE
350
231
  3
PUCSORGBACK
350
237
  3
PUCSORGBOTTOM
350
233
  3
PUCSORGFRONT
350
236
  3
PUCSORGLEFT
350
234
  3
PUCSORGRIGHT
350
235
  3
PUCSORGTOP
350
232
  3
PUCSORTHOREF
350
22F
  3
PUCSORTHOVIEW
350
230
  3
STYLESHEET
350
224
  3
TSTACKALIGN
350
221
  3
TSTACKSIZE
350
222
  3
UCSBASE
350
23A
  3
UCSORGBACK
350
240
  3
UCSORGBOTTOM
350
23C
  3
UCSORGFRONT
350
23F
  3
UCSORGLEFT
350
23D
  3
UCSORGRIGHT
350
23E
  3
UCSORGTOP
350
23B
  3
UCSORTHOREF
350
238
  3
UCSORTHOVIEW
350
239
  3
VERSIONGUID
350
22C
  0
XRECORD
  5
244
102
{ACAD_REACTORS
330
243
102
}
330
243
100
AcDbXrecord
340
1E
  0
XRECORD
  5
242
102
{ACAD_REACTORS
330
241
102
}
330
241
100
AcDbXrecord
340
1A
  0
MLINESTYLE
  5
17
102
{ACAD_REACTORS
330
16
102
}
330
16
100
AcDbMlineStyle
  2
STANDARD
 70
     0
  3

 62
   256
 51
90.0
 52
90.0
 71
     2
 49
0.5
 62
   256
  6
BYLAYER
 49
-0.5
 62
   256
  6
BYLAYER
  0
ACDBPLACEHOLDER
  5
F
102
{ACAD_REACTORS
330
E
102
}
330
E
100
AcDbPlaceHolder
280
     0
  0
XRECORD
  5
22A
102
{ACAD_REACTORS
330
220
102
}
330
220
100
AcDbXrecord
 90
        0
  0
XRECORD
  5
22E
102
{ACAD_REACTORS
330
220
102
}
330
220
100
AcDbXrecord
1000
DSTYLE
1002
{
1070
   341
340
39
1070
   342
340
39
1070
   343
340
39
1070
   344
340
34
1002
}
  0
XRECORD
  5
22B
102
{ACAD_REACTORS
330
220
102
}
330
220
100
AcDbXrecord
  1
{E0E4CFE5-A90C-4B12-848E-A4D1E38EDB54}
  0
XRECORD
  5
223
102
{ACAD_REACTORS
330
220
102
}
330
220
100
AcDbXrecord
  1

  0
XRECORD
  5
229
102
{ACAD_REACTORS
330
220
102
}
330
220
100
AcDbXrecord
 90
        0
  0
XRECORD
  5
225
102
{ACAD_REACTORS
330
220
102
}
330
220
100
AcDbXrecord
340
19
  0
XRECORD
  5
228
102
{ACAD_REACTORS
330
220
102
}
330
220
100
AcDbXrecord
 90
    10781
  0
XRECORD
  5
226
102
{ACAD_REACTORS
330
220
102
}
330
220
100
AcDbXrecord
340
18
  0
XRECORD
  5
227
102
{ACAD_REACTORS
330
220
102
}
330
220
100
AcDbXrecord
340
E
  0
XRECORD
  5
22D
102
{ACAD_REACTORS
330
220
102
}
330
220
100
AcDbXrecord
 40
0.0
  0
XRECORD
  5
231
102
{ACAD_REACTORS
330
220
102
}
330
220
100
AcDbXrecord
340
0
  0
XRECORD
  5
237
102
{ACAD_REACTORS
330
220
102
}
330
220
100
AcDbXrecord
 10
0.0
 20
0.0
 30
0.0
  0
XRECORD
  5
233
102
{ACAD_REACTORS
330
220
102
}
330
220
100
AcDbXrecord
 10
0.0
 20
0.0
 30
0.0
  0
XRECORD
  5
236
102
{ACAD_REACTORS
330
220
102
}
330
220
100
AcDbXrecord
 10
0.0
 20
0.0
 30
0.0
  0
XRECORD
  5
234
102
{ACAD_REACTORS
330
220
102
}
330
220
100
AcDbXrecord
 10
0.0
 20
0.0
 30
0.0
  0
XRECORD
  5
235
102
{ACAD_REACTORS
330
220
102
}
330
220
100
AcDbXrecord
 10
0.0
 20
0.0
 30
0.0
  0
XRECORD
  5
232
102
{ACAD_REACTORS
330
220
102
}
330
220
100
AcDbXrecord
 10
0.0
 20
0.0
 30
0.0
  0
XRECORD
  5
22F
102
{ACAD_REACTORS
330
220
102
}
330
220
100
AcDbXrecord
340
0
  0
XRECORD
  5
230
102
{ACAD_REACTORS
330
220
102
}
330
220
100
AcDbXrecord
 70
     0
  0
XRECORD
  5
224
102
{ACAD_REACTORS
330
220
102
}
330
220
100
AcDbXrecord
  1

  0
XRECORD
  5
221
102
{ACAD_REACTORS
330
220
102
}
330
220
100
AcDbXrecord
 90
        1
  0
XRECORD
  5
222
102
{ACAD_REACTORS
330
220
102
}
330
220
100
AcDbXrecord
 90
       70
  0
XRECORD
  5
23A
102
{ACAD_REACTORS
330
220
102
}
330
220
100
AcDbXrecord
340
0
  0
XRECORD
  5
240
102
{ACAD_REACTORS
330
220
102
}
330
220
100
AcDbXrecord
 10
0.0
 20
0.0
 30
0.0
  0
XRECORD
  5
23C
102
{ACAD_REACTORS
330
220
102
}
330
220
100
AcDbXrecord
 10
0.0
 20
0.0
 30
0.0
  0
XRECORD
  5
23F
102
{ACAD_REACTORS
330
220
102
}
330
220
100
AcDbXrecord
 10
0.0
 20
0.0
 30
0.0
  0
XRECORD
  5
23D
102
{ACAD_REACTORS
330
220
102
}
330
220
100
AcDbXrecord
 10
0.0
 20
0.0
 30
0.0
  0
XRECORD
  5
23E
102
{ACAD_REACTORS
330
220
102
}
330
220
100
AcDbXrecord
 10
0.0
 20
0.0
 30
0.0
  0
XRECORD
  5
23B
102
{ACAD_REACTORS
330
220
102
}
330
220
100
AcDbXrecord
 10
0.0
 20
0.0
 30
0.0
  0
XRECORD
  5
238
102
{ACAD_REACTORS
330
220
102
}
330
220
100
AcDbXrecord
340
0
  0
XRECORD
  5
239
102
{ACAD_REACTORS
330
220
102
}
330
220
100
AcDbXrecord
 70
     0
  0
XRECORD
  5
22C
102
{ACAD_REACTORS
330
220
102
}
330
220
100
AcDbXrecord
  1
{C3676D55-8DE0-4ADE-96F0-DA17BAB54E45}
  0
ENDSEC
  0
EOF
