  0
SECTION
  2
HEADER
  9
$ACADVER
  1
AC1014
  9
$ACADMAINTVER
 70
     9
  9
$DWGCODEPAGE
  3
ANSI_932
  9
$INSBASE
 10
0.0
 20
0.0
 30
0.0
  9
$EXTMIN
 10
-1366.868522015351
 20
-1899.231530641815
 30
0.0
  9
$EXTMAX
 10
2026.987671451634
 20
1562.760700924169
 30
0.0
  9
$LIMMIN
 10
-4200.0
 20
-2970.0
  9
$LIMMAX
 10
4200.0
 20
2970.0
  9
$ORTHOMODE
 70
     0
  9
$REGENMODE
 70
     1
  9
$FILLMODE
 70
     1
  9
$QTEXTMODE
 70
     0
  9
$MIRRTEXT
 70
     0
  9
$DRAGMODE
 70
     2
  9
$LTSCALE
 40
20.0
  9
$OSMODE
 70
    37
  9
$ATTMODE
 70
     1
  9
$TEXTSIZE
 40
64.0
  9
$TRACEWID
 40
0.05
  9
$TEXTSTYLE
  7
STANDARD
  9
$CLAYER
  8
0
  9
$CELTYPE
  6
CONTINUOUS
  9
$CECOLOR
 62
     7
  9
$CELTSCALE
 40
1.0
  9
$DELOBJ
 70
     1
  9
$DISPSILH
 70
     0
  9
$DIMSCALE
 40
1.0
  9
$DIMASZ
 40
10.0
  9
$DIMEXO
 40
20.0
  9
$DIMDLI
 40
200.0
  9
$DIMRND
 40
0.0
  9
$DIMDLE
 40
0.0
  9
$DIMEXE
 40
30.0
  9
$DIMTP
 40
0.0
  9
$DIMTM
 40
0.0
  9
$DIMTXT
 40
64.0
  9
$DIMCEN
 40
0.0
  9
$DIMTSZ
 40
0.0
  9
$DIMTOL
 70
     0
  9
$DIMLIM
 70
     0
  9
$DIMTIH
 70
     0
  9
$DIMTOH
 70
     0
  9
$DIMSE1
 70
     0
  9
$DIMSE2
 70
     0
  9
$DIMTAD
 70
     1
  9
$DIMZIN
 70
     8
  9
$DIMBLK
  1
DOTBLANK
  9
$DIMASO
 70
     1
  9
$DIMSHO
 70
     0
  9
$DIMPOST
  1

  9
$DIMAPOST
  1

  9
$DIMALT
 70
     0
  9
$DIMALTD
 70
     2
  9
$DIMALTF
 40
25.4
  9
$DIMLFAC
 40
1.0
  9
$DIMTOFL
 70
     1
  9
$DIMTVP
 40
0.0
  9
$DIMTIX
 70
     1
  9
$DIMSOXD
 70
     0
  9
$DIMSAH
 70
     0
  9
$DIMBLK1
  1
DOTBLANK
  9
$DIMBLK2
  1
ORIGIN
  9
$DIMSTYLE
  2
STANDARD
  9
$DIMCLRD
 70
     0
  9
$DIMCLRE
 70
     0
  9
$DIMCLRT
 70
     0
  9
$DIMTFAC
 40
1.0
  9
$DIMGAP
 40
0.09
  9
$DIMJUST
 70
     0
  9
$DIMSD1
 70
     0
  9
$DIMSD2
 70
     0
  9
$DIMTOLJ
 70
     1
  9
$DIMTZIN
 70
     0
  9
$DIMALTZ
 70
     0
  9
$DIMALTTZ
 70
     0
  9
$DIMFIT
 70
     3
  9
$DIMUPT
 70
     0
  9
$DIMUNIT
 70
     2
  9
$DIMDEC
 70
     4
  9
$DIMTDEC
 70
     4
  9
$DIMALTU
 70
     2
  9
$DIMALTTD
 70
     2
  9
$DIMTXSTY
  7
STANDARD
  9
$DIMAUNIT
 70
     0
  9
$LUNITS
 70
     2
  9
$LUPREC
 70
     4
  9
$SKETCHINC
 40
0.1
  9
$FILLETRAD
 40
0.0
  9
$AUNITS
 70
     1
  9
$AUPREC
 70
     3
  9
$MENU
  1
ACAD
  9
$ELEVATION
 40
0.0
  9
$PELEVATION
 40
0.0
  9
$THICKNESS
 40
0.0
  9
$LIMCHECK
 70
     0
  9
$BLIPMODE
 70
     0
  9
$CHAMFERA
 40
0.0
  9
$CHAMFERB
 40
0.0
  9
$CHAMFERC
 40
0.0
  9
$CHAMFERD
 40
0.0
  9
$SKPOLY
 70
     0
  9
$TDCREATE
 40
2449761.493622685
  9
$TDUPDATE
 40
2453973.707770984
  9
$TDINDWG
 40
1.0949255787
  9
$TDUSRTIMER
 40
1.0949255787
  9
$USRTIMER
 70
     1
  9
$ANGBASE
 50
0.0
  9
$ANGDIR
 70
     0
  9
$PDMODE
 70
    35
  9
$PDSIZE
 40
100.0
  9
$PLINEWID
 40
0.0
  9
$COORDS
 70
     2
  9
$SPLFRAME
 70
     0
  9
$SPLINETYPE
 70
     6
  9
$SPLINESEGS
 70
     8
  9
$ATTDIA
 70
     0
  9
$ATTREQ
 70
     1
  9
$HANDLING
 70
-16383
  9
$HANDSEED
  5
2DD
  9
$SURFTAB1
 70
     6
  9
$SURFTAB2
 70
     6
  9
$SURFTYPE
 70
     6
  9
$SURFU
 70
     6
  9
$SURFV
 70
     6
  9
$UCSNAME
  2

  9
$UCSORG
 10
0.0
 20
0.0
 30
0.0
  9
$UCSXDIR
 10
1.0
 20
0.0
 30
0.0
  9
$UCSYDIR
 10
0.0
 20
1.0
 30
0.0
  9
$PUCSNAME
  2

  9
$PUCSORG
 10
0.0
 20
0.0
 30
0.0
  9
$PUCSXDIR
 10
1.0
 20
0.0
 30
0.0
  9
$PUCSYDIR
 10
0.0
 20
1.0
 30
0.0
  9
$USERI1
 70
     0
  9
$USERI2
 70
     0
  9
$USERI3
 70
     0
  9
$USERI4
 70
     0
  9
$USERI5
 70
     0
  9
$USERR1
 40
20.0
  9
$USERR2
 40
0.0
  9
$USERR3
 40
0.0
  9
$USERR4
 40
0.0
  9
$USERR5
 40
0.0
  9
$WORLDVIEW
 70
     1
  9
$SHADEDGE
 70
     3
  9
$SHADEDIF
 70
    70
  9
$TILEMODE
 70
     1
  9
$MAXACTVP
 70
    64
  9
$PINSBASE
 10
0.0
 20
0.0
 30
0.0
  9
$PLIMCHECK
 70
     0
  9
$PEXTMIN
 10
1.000000000000000E+20
 20
1.000000000000000E+20
 30
1.000000000000000E+20
  9
$PEXTMAX
 10
-1.000000000000000E+20
 20
-1.000000000000000E+20
 30
-1.000000000000000E+20
  9
$PLIMMIN
 10
0.0
 20
0.0
  9
$PLIMMAX
 10
12.0
 20
9.0
  9
$UNITMODE
 70
     0
  9
$VISRETAIN
 70
     1
  9
$PLINEGEN
 70
     0
  9
$PSLTSCALE
 70
     1
  9
$TREEDEPTH
 70
  3020
  9
$PICKSTYLE
 70
     0
  9
$CMLSTYLE
  2
STANDARD
  9
$CMLJUST
 70
     0
  9
$CMLSCALE
 40
1.0
  9
$PROXYGRAPHICS
 70
     1
  9
$MEASUREMENT
 70
     0
  0
ENDSEC
  0
SECTION
  2
CLASSES
  0
CLASS
  1
ACDBDICTIONARYWDFLT
  2
AcDbDictionaryWithDefault
  3
AutoCAD 2000
 90
        0
280
     0
281
     0
  0
CLASS
  1
ACDBPLACEHOLDER
  2
AcDbPlaceHolder
  3
AutoCAD 2000
 90
        0
280
     0
281
     0
  0
CLASS
  1
LAYOUT
  2
AcDbLayout
  3
AutoCAD 2000
 90
        0
280
     0
281
     0
  0
CLASS
  1
LONG_TRANSACTION
  2
AcDbLongTransaction
  3
AutoCAD 2000
 90
        0
280
     0
281
     0
  0
CLASS
  1
LWPOLYLINE
  2
AcDbPolyline
  3
AutoCAD 2000
 90
        0
280
     0
281
     1
  0
CLASS
  1
HATCH
  2
AcDbHatch
  3
AutoCAD 2000
 90
        0
280
     0
281
     1
  0
CLASS
  1
XRECORD
  2
AcDbXrecord
  3
AutoCAD 2000
 90
        0
280
     0
281
     0
  0
ENDSEC
  0
SECTION
  2
TABLES
  0
TABLE
  2
VPORT
  5
8
330
0
100
AcDbSymbolTable
 70
     2
  0
VPORT
  5
2B7
330
8
100
AcDbSymbolTableRecord
100
AcDbViewportTableRecord
  2
*ACTIVE
 70
     0
 10
0.0
 20
0.0
 11
1.0
 21
1.0
 12
513.7071426989091
 22
-167.940019707732
 13
0.0
 23
0.0
 14
50.0
 24
50.0
 15
100.0
 25
100.0
 16
0.0
 26
0.0
 36
1.0
 17
0.0
 27
0.0
 37
0.0
 40
3490.602143584204
 41
1.657997399219765
 42
50.0
 43
0.0
 44
0.0
 50
0.0
 51
0.0
 71
     0
 72
  1000
 73
     1
 74
     0
 75
     0
 76
     0
 77
     0
 78
     0
  0
ENDTAB
  0
TABLE
  2
LTYPE
  5
5
330
0
100
AcDbSymbolTable
 70
     2
  0
LTYPE
  5
13
330
5
100
AcDbSymbolTableRecord
100
AcDbLinetypeTableRecord
  2
BYBLOCK
 70
     0
  3

 72
    65
 73
     0
 40
0.0
  0
LTYPE
  5
14
330
5
100
AcDbSymbolTableRecord
100
AcDbLinetypeTableRecord
  2
BYLAYER
 70
     0
  3

 72
    65
 73
     0
 40
0.0
  0
LTYPE
  5
15
330
5
100
AcDbSymbolTableRecord
100
AcDbLinetypeTableRecord
  2
CONTINUOUS
 70
     0
  3
????
 72
    65
 73
     0
 40
0.0
  0
LTYPE
  5
22
330
5
100
AcDbSymbolTableRecord
100
AcDbLinetypeTableRecord
  2
DASHDOT
 70
     0
  3
____ _ ____ _ ____ _ ____ _ ____ _ ____ _ ____
 72
    65
 73
     4
 40
5.5
 49
4.0
 74
     0
 49
-0.6
 74
     0
 49
0.3
 74
     0
 49
-0.6
 74
     0
  0
ENDTAB
  0
TABLE
  2
LAYER
  5
2
330
0
100
AcDbSymbolTable
 70
    12
  0
LAYER
  5
10
330
2
100
AcDbSymbolTableRecord
100
AcDbLayerTableRecord
  2
0
 70
     0
 62
     7
  6
CONTINUOUS
  0
LAYER
  5
23
330
2
100
AcDbSymbolTableRecord
100
AcDbLayerTableRecord
  2
OUTLINE
 70
     0
 62
     3
  6
CONTINUOUS
  0
LAYER
  5
24
330
2
100
AcDbSymbolTableRecord
100
AcDbLayerTableRecord
  2
DETAIL
 70
     0
 62
     5
  6
CONTINUOUS
  0
LAYER
  5
25
330
2
100
AcDbSymbolTableRecord
100
AcDbLayerTableRecord
  2
BASIS
 70
     0
 62
     6
  6
DASHDOT
  0
LAYER
  5
26
330
2
100
AcDbSymbolTableRecord
100
AcDbLayerTableRecord
  2
SIZE
 70
     0
 62
    30
  6
CONTINUOUS
  0
LAYER
  5
27
330
2
100
AcDbSymbolTableRecord
100
AcDbLayerTableRecord
  2
NOTE
 70
     0
 62
     4
  6
CONTINUOUS
  0
LAYER
  5
28
330
2
100
AcDbSymbolTableRecord
100
AcDbLayerTableRecord
  2
ARRANGE
 70
     0
 62
     1
  6
CONTINUOUS
  0
LAYER
  5
29
330
2
100
AcDbSymbolTableRecord
100
AcDbLayerTableRecord
  2
FIX
 70
     0
 62
    11
  6
CONTINUOUS
  0
LAYER
  5
2A
330
2
100
AcDbSymbolTableRecord
100
AcDbLayerTableRecord
  2
SERVICESPACE
 70
     0
 62
     2
  6
DASHDOT
  0
LAYER
  5
2B
330
2
100
AcDbSymbolTableRecord
100
AcDbLayerTableRecord
  2
ETC
 70
     0
 62
    61
  6
CONTINUOUS
  0
LAYER
  5
2C
330
2
100
AcDbSymbolTableRecord
100
AcDbLayerTableRecord
  2
SYMBOLLINE
 70
     0
 62
    15
  6
CONTINUOUS
  0
LAYER
  5
2D
330
2
100
AcDbSymbolTableRecord
100
AcDbLayerTableRecord
  2
DEFPOINTS
 70
     0
 62
     7
  6
CONTINUOUS
  0
ENDTAB
  0
TABLE
  2
STYLE
  5
3
330
0
100
AcDbSymbolTable
 70
     2
  0
STYLE
  5
11
330
3
100
AcDbSymbolTableRecord
100
AcDbTextStyleTableRecord
  2
STANDARD
 70
     0
 40
0.0
 41
0.9
 50
0.0
 71
     0
 42
64.0
  3
SIMPLEX
  4
BIGFONT
  0
STYLE
  5
2E
330
3
100
AcDbSymbolTableRecord
100
AcDbTextStyleTableRecord
  2
STANDARD1
 70
     0
 40
0.0
 41
1.0
 50
0.0
 71
     0
 42
64.0
  3
MONOTXT
  4
BIGFONT
  0
ENDTAB
  0
TABLE
  2
VIEW
  5
6
330
0
100
AcDbSymbolTable
 70
     1
  0
VIEW
  5
2F
330
6
100
AcDbSymbolTableRecord
100
AcDbViewTableRecord
  2
ALL
 70
     0
 40
6056.230032000001
 10
0.0
 20
58.11501599999999
 41
8400.0
 11
0.0
 21
0.0
 31
1.0
 12
0.0
 22
0.0
 32
0.0
 42
50.0
 43
0.0
 44
0.0
 50
0.0
 71
     0
  0
ENDTAB
  0
TABLE
  2
UCS
  5
7
330
0
100
AcDbSymbolTable
 70
     0
  0
ENDTAB
  0
TABLE
  2
APPID
  5
9
330
0
100
AcDbSymbolTable
 70
     1
  0
APPID
  5
12
330
9
100
AcDbSymbolTableRecord
100
AcDbRegAppTableRecord
  2
ACAD
 70
     0
  0
ENDTAB
  0
TABLE
  2
DIMSTYLE
  5
A
330
0
100
AcDbSymbolTable
 70
     1
  0
DIMSTYLE
105
2B6
330
A
100
AcDbSymbolTableRecord
100
AcDbDimStyleTableRecord
  2
STANDARD
 70
     0
  3

  4

  5

  6

  7

 40
1.0
 41
0.18
 42
0.0625
 43
0.38
 44
0.18
 45
0.0
 46
0.0
 47
0.0
 48
0.0
140
0.18
141
0.09
142
0.0
143
25.4
144
1.0
145
0.0
146
1.0
147
0.09
 71
     0
 72
     0
 73
     1
 74
     1
 75
     0
 76
     0
 77
     0
 78
     0
170
     0
171
     2
172
     0
173
     0
174
     0
175
     0
176
     0
177
     0
178
     0
270
     2
271
     4
272
     4
273
     2
274
     2
340
11
275
     0
280
     0
281
     0
282
     0
283
     1
284
     0
285
     0
286
     0
287
     3
288
     0
  0
ENDTAB
  0
TABLE
  2
BLOCK_RECORD
  5
1
330
0
100
AcDbSymbolTable
 70
     2
  0
BLOCK_RECORD
  5
1E
102
{ACAD_XDICTIONARY
360
2DB
102
}
330
1
100
AcDbSymbolTableRecord
100
AcDbBlockTableRecord
  2
*MODEL_SPACE
  0
BLOCK_RECORD
  5
1A
102
{ACAD_XDICTIONARY
360
2D9
102
}
330
1
100
AcDbSymbolTableRecord
100
AcDbBlockTableRecord
  2
*PAPER_SPACE
  0
BLOCK_RECORD
  5
34
330
1
100
AcDbSymbolTableRecord
100
AcDbBlockTableRecord
  2
_ORIGIN
  0
BLOCK_RECORD
  5
39
330
1
100
AcDbSymbolTableRecord
100
AcDbBlockTableRecord
  2
_DOTBLANK
  0
ENDTAB
  0
ENDSEC
  0
SECTION
  2
BLOCKS
  0
BLOCK
  5
1F
330
1E
100
AcDbEntity
  8
0
100
AcDbBlockBegin
  2
*MODEL_SPACE
 70
     0
 10
0.0
 20
0.0
 30
0.0
  3
*MODEL_SPACE
  1

  0
ENDBLK
  5
20
330
1E
100
AcDbEntity
  8
0
100
AcDbBlockEnd
  0
BLOCK
  5
1B
330
1A
100
AcDbEntity
 67
     1
  8
0
100
AcDbBlockBegin
  2
*PAPER_SPACE
 70
     0
 10
0.0
 20
0.0
 30
0.0
  3
*PAPER_SPACE
  1

  0
ENDBLK
  5
1C
330
1A
100
AcDbEntity
 67
     1
  8
0
100
AcDbBlockEnd
  0
BLOCK
  5
35
330
34
100
AcDbEntity
  8
0
100
AcDbBlockBegin
  2
_ORIGIN
 70
     0
 10
0.0
 20
0.0
 30
0.0
  3
_ORIGIN
  1

  0
CIRCLE
  5
36
330
34
100
AcDbEntity
  8
0
  6
CONTINUOUS
 62
     7
100
AcDbCircle
 10
0.0
 20
0.0
 30
0.0
 40
0.5
  0
LINE
  5
37
330
34
100
AcDbEntity
  8
0
  6
CONTINUOUS
 62
     7
100
AcDbLine
 10
-0.5
 20
0.0
 30
0.0
 11
-1.0
 21
0.0
 31
0.0
  0
ENDBLK
  5
38
330
34
100
AcDbEntity
  8
0
100
AcDbBlockEnd
  0
BLOCK
  5
3A
330
39
100
AcDbEntity
  8
0
100
AcDbBlockBegin
  2
_DOTBLANK
 70
     0
 10
0.0
 20
0.0
 30
0.0
  3
_DOTBLANK
  1

  0
CIRCLE
  5
3B
330
39
100
AcDbEntity
  8
0
  6
CONTINUOUS
 62
     7
100
AcDbCircle
 10
0.0
 20
0.0
 30
0.0
 40
0.5
  0
LINE
  5
3C
330
39
100
AcDbEntity
  8
0
  6
CONTINUOUS
 62
     7
100
AcDbLine
 10
-0.5
 20
0.0
 30
0.0
 11
-1.0
 21
0.0
 31
0.0
  0
ENDBLK
  5
3D
330
39
100
AcDbEntity
  8
0
100
AcDbBlockEnd
  0
ENDSEC
  0
SECTION
  2
ENTITIES
  0
LINE
  5
3E
330
1E
100
AcDbEntity
  8
BASIS
  6
DASHDOT
 62
     6
100
AcDbLine
 10
-427.1626369999999
 20
0.0000000000002274
 30
0.0
 11
416.9682179999999
 21
0.0000000000002274
 31
0.0
  0
POINT
  5
3F
330
1E
100
AcDbEntity
  8
ARRANGE
  6
CONTINUOUS
 62
     1
100
AcDbPoint
 10
0.0000000000000568
 20
0.0000000000002274
 30
0.0
  0
LINE
  5
40
330
1E
100
AcDbEntity
  8
BASIS
  6
DASHDOT
 62
     6
100
AcDbLine
 10
0.0000000000000568
 20
-921.7400329999998
 30
0.0
 11
0.0000000000000568
 21
939.9562249999998
 31
0.0
  0
LINE
  5
41
330
1E
100
AcDbEntity
  8
DETAIL
  6
CONTINUOUS
 62
     5
100
AcDbLine
 10
316.9999999999999
 20
-842.9999999999996
 30
0.0
 11
317.0
 21
843.0
 31
0.0
  0
LINE
  5
42
330
1E
100
AcDbEntity
  8
DETAIL
  6
CONTINUOUS
 62
     5
100
AcDbLine
 10
-316.9999999999999
 20
-842.9999999999996
 30
0.0
 11
-316.9999999999999
 21
843.0
 31
0.0
  0
CIRCLE
  5
43
330
1E
100
AcDbEntity
  8
ARRANGE
  6
CONTINUOUS
 62
     1
100
AcDbCircle
 10
0.0000000000000568
 20
0.0000000000002274
 30
0.0
 40
40.0
  0
TEXT
  5
44
330
1E
100
AcDbEntity
  8
ETC
  6
CONTINUOUS
 62
    61
100
AcDbText
 10
759.2476249999998
 20
1353.080999999999
 30
0.0
 40
64.0
  1
PLFY-P100VLMD-E_1
 41
0.9
100
AcDbText
  0
LINE
  5
45
330
1E
100
AcDbEntity
  8
DETAIL
  6
CONTINUOUS
 62
     5
100
AcDbLine
 10
339.0
 20
875.0
 30
0.0
 11
-339.0
 21
875.0
 31
0.0
  0
LINE
  5
46
330
1E
100
AcDbEntity
  8
DETAIL
  6
CONTINUOUS
 62
     5
100
AcDbLine
 10
339.0
 20
-874.9999999999996
 30
0.0
 11
-339.0
 21
-874.9999999999996
 31
0.0
  0
LINE
  5
47
330
1E
100
AcDbEntity
  8
DETAIL
  6
CONTINUOUS
 62
     5
100
AcDbLine
 10
317.0
 20
723.000000000001
 30
0.0
 11
-317.0
 21
723.000000000001
 31
0.0
  0
LINE
  5
48
330
1E
100
AcDbEntity
  8
DETAIL
  6
CONTINUOUS
 62
     5
100
AcDbLine
 10
317.0
 20
-722.9999999999985
 30
0.0
 11
-316.9999999999999
 21
-722.9999999999987
 31
0.0
  0
LINE
  5
49
330
1E
100
AcDbEntity
  8
DETAIL
  6
CONTINUOUS
 62
     5
100
AcDbLine
 10
355.0
 20
-858.9999999999996
 30
0.0
 11
354.9999999999998
 21
859.0000000000001
 31
0.0
  0
LINE
  5
4A
330
1E
100
AcDbEntity
  8
DETAIL
  6
CONTINUOUS
 62
     5
100
AcDbLine
 10
-355.0
 20
-858.9999999999996
 30
0.0
 11
-355.0
 21
859.0000000000001
 31
0.0
  0
ARC
  5
4B
330
1E
100
AcDbEntity
  8
DETAIL
  6
CONTINUOUS
 62
     5
100
AcDbCircle
 10
-339.0
 20
859.0000000000001
 30
0.0
 40
16.0
100
AcDbArc
 50
90.0
 51
180.0
  0
ARC
  5
4C
330
1E
100
AcDbEntity
  8
DETAIL
  6
CONTINUOUS
 62
     5
100
AcDbCircle
 10
339.0
 20
859.0000000000001
 30
0.0
 40
16.0
100
AcDbArc
 50
0.0
 51
90.0
  0
ARC
  5
4D
330
1E
100
AcDbEntity
  8
DETAIL
  6
CONTINUOUS
 62
     5
100
AcDbCircle
 10
339.0
 20
-858.9999999999996
 30
0.0
 40
16.0
100
AcDbArc
 50
270.0
 51
0.0
  0
ARC
  5
4E
330
1E
100
AcDbEntity
  8
DETAIL
  6
CONTINUOUS
 62
     5
100
AcDbCircle
 10
-339.0
 20
-858.9999999999996
 30
0.0
 40
16.0
100
AcDbArc
 50
180.0
 51
270.0
  0
LINE
  5
4F
330
1E
100
AcDbEntity
  8
DETAIL
  6
CONTINUOUS
 62
     5
100
AcDbLine
 10
317.0
 20
843.0
 30
0.0
 11
-317.0
 21
843.0
 31
0.0
  0
LINE
  5
50
330
1E
100
AcDbEntity
  8
DETAIL
  6
CONTINUOUS
 62
     5
100
AcDbLine
 10
317.0
 20
-842.9999999999996
 30
0.0
 11
-316.9999999999999
 21
-842.9999999999996
 31
0.0
  0
LINE
  5
51
330
1E
100
AcDbEntity
  8
DETAIL
  6
CONTINUOUS
 62
     5
100
AcDbLine
 10
-312.0
 20
723.0000000000012
 30
0.0
 11
-312.0
 21
773.000000000001
 31
0.0
  0
LINE
  5
52
330
1E
100
AcDbEntity
  8
DETAIL
  6
CONTINUOUS
 62
     5
100
AcDbLine
 10
-262.0
 20
723.0000000000012
 30
0.0
 11
-262.0
 21
773.000000000001
 31
0.0
  0
LINE
  5
53
330
1E
100
AcDbEntity
  8
DETAIL
  6
CONTINUOUS
 62
     5
100
AcDbLine
 10
312.0
 20
723.000000000001
 30
0.0
 11
312.0
 21
773.0000000000001
 31
0.0
  0
LINE
  5
54
330
1E
100
AcDbEntity
  8
DETAIL
  6
CONTINUOUS
 62
     5
100
AcDbLine
 10
262.0
 20
723.000000000001
 30
0.0
 11
262.0
 21
773.0000000000001
 31
0.0
  0
LINE
  5
55
330
1E
100
AcDbEntity
  8
DETAIL
  6
CONTINUOUS
 62
     5
100
AcDbLine
 10
262.0
 20
-722.9999999999985
 30
0.0
 11
262.0
 21
-772.9999999999996
 31
0.0
  0
LINE
  5
56
330
1E
100
AcDbEntity
  8
DETAIL
  6
CONTINUOUS
 62
     5
100
AcDbLine
 10
312.0
 20
-722.9999999999985
 30
0.0
 11
311.9999999999998
 21
-772.9999999999996
 31
0.0
  0
LINE
  5
57
330
1E
100
AcDbEntity
  8
DETAIL
  6
CONTINUOUS
 62
     5
100
AcDbLine
 10
-261.9999999999998
 20
-722.9999999999982
 30
0.0
 11
-261.9999999999998
 21
-773.0000000000004
 31
0.0
  0
LINE
  5
58
330
1E
100
AcDbEntity
  8
DETAIL
  6
CONTINUOUS
 62
     5
100
AcDbLine
 10
-311.9999999999998
 20
-722.9999999999982
 30
0.0
 11
-311.9999999999998
 21
-773.000000000001
 31
0.0
  0
LINE
  5
59
330
1E
100
AcDbEntity
  8
DETAIL
  6
CONTINUOUS
 62
     5
100
AcDbLine
 10
-292.9999999999994
 20
773.000000000001
 30
0.0
 11
-292.9999999999994
 21
754.0000000000003
 31
0.0
  0
LINE
  5
5A
330
1E
100
AcDbEntity
  8
DETAIL
  6
CONTINUOUS
 62
     5
100
AcDbLine
 10
-280.9999999999993
 20
773.000000000001
 30
0.0
 11
-280.9999999999993
 21
754.0000000000003
 31
0.0
  0
LINE
  5
5B
330
1E
100
AcDbEntity
  8
SERVICESPACE
  6
DASHDOT
 62
     2
100
AcDbLine
 10
-335.0
 20
855.0
 30
0.0
 11
335.0
 21
855.0
 31
0.0
  0
LINE
  5
5C
330
1E
100
AcDbEntity
  8
SERVICESPACE
  6
DASHDOT
 62
     2
100
AcDbLine
 10
-335.0
 20
-854.9999999999997
 30
0.0
 11
335.0
 21
-854.9999999999997
 31
0.0
  0
LINE
  5
5D
330
1E
100
AcDbEntity
  8
SERVICESPACE
  6
DASHDOT
 62
     2
100
AcDbLine
 10
334.9999999999998
 20
-854.9999999999997
 30
0.0
 11
335.0
 21
855.0
 31
0.0
  0
LINE
  5
5E
330
1E
100
AcDbEntity
  8
SERVICESPACE
  6
DASHDOT
 62
     2
100
AcDbLine
 10
-335.0
 20
855.0
 30
0.0
 11
-334.9999999999997
 21
-854.9999999999997
 31
0.0
  0
LINE
  5
5F
330
1E
100
AcDbEntity
  8
NOTE
  6
CONTINUOUS
 62
     4
100
AcDbLine
 10
101.0000000000009
 20
-789.9999999999992
 30
0.0
 11
786.2147057727163
 21
-1899.231530641815
 31
0.0
  0
LINE
  5
60
330
1E
100
AcDbEntity
  8
NOTE
  6
CONTINUOUS
 62
     4
100
AcDbLine
 10
170.999999999999
 20
-795.9999999999975
 30
0.0
 11
630.4887218822805
 21
-1364.848429410415
 31
0.0
  0
LINE
  5
61
330
1E
100
AcDbEntity
  8
NOTE
  6
CONTINUOUS
 62
     4
100
AcDbLine
 10
786.2147057727163
 20
-1899.231530641815
 30
0.0
 11
1191.054138772716
 21
-1899.231530641815
 31
0.0
  0
TEXT
  5
62
330
1E
100
AcDbEntity
  8
NOTE
  6
CONTINUOUS
 62
     4
100
AcDbText
 10
807.2287617727166
 20
-1880.965365641815
 30
0.0
 40
64.0
  1
RL %%c9.52
 41
0.9
100
AcDbText
  0
LINE
  5
63
330
1E
100
AcDbEntity
  8
NOTE
  6
CONTINUOUS
 62
     4
100
AcDbLine
 10
-179.9999999999986
 20
-722.9999999999976
 30
0.0
 11
-636.9285920255727
 21
-1122.290280297552
 31
0.0
  0
LINE
  5
64
330
1E
100
AcDbEntity
  8
NOTE
  6
CONTINUOUS
 62
     4
100
AcDbLine
 10
-636.9285920255727
 20
-1122.290280297552
 30
0.0
 11
-1141.980546025572
 21
-1122.290280297552
 31
0.0
  0
TEXT
  5
65
330
1E
100
AcDbEntity
  8
NOTE
  6
CONTINUOUS
 62
     4
100
AcDbText
 10
-1112.451218862933
 20
-1095.621584769003
 30
0.0
 40
64.0
  1
D1 VP-25
 41
0.9
100
AcDbText
  0
LINE
  5
66
330
1E
100
AcDbEntity
  8
DETAIL
  6
CONTINUOUS
 62
     5
100
AcDbLine
 10
30.00000000000005
 20
-836.9999999999986
 30
0.0
 11
30.00000000000005
 21
-722.9999999999985
 31
0.0
  0
LINE
  5
67
330
1E
100
AcDbEntity
  8
NOTE
  6
CONTINUOUS
 62
     4
100
AcDbLine
 10
-68.00000000000051
 20
-836.9999999999997
 30
0.0
 11
-513.6917621004864
 21
-1479.614073874842
 31
0.0
  0
LINE
  5
68
330
1E
100
AcDbEntity
  8
NOTE
  6
CONTINUOUS
 62
     4
100
AcDbLine
 10
-513.6917621004864
 20
-1479.614073874842
 30
0.0
 11
-649.3958161004865
 21
-1479.614073874842
 31
0.0
  0
TEXT
  5
69
330
1E
100
AcDbEntity
  8
NOTE
  6
CONTINUOUS
 62
     4
100
AcDbText
 10
-622.3362071004864
 20
-1459.513555874844
 30
0.0
 40
64.0
  1
CL
 41
0.9
100
AcDbText
  0
LINE
  5
6A
330
1E
100
AcDbEntity
  8
NOTE
  6
CONTINUOUS
 62
     4
100
AcDbLine
 10
-827.1833311886764
 20
-1317.20869893285
 30
0.0
 11
-648.1692181886764
 21
-1317.20869893285
 31
0.0
  0
TEXT
  5
6B
330
1E
100
AcDbEntity
  8
NOTE
  6
CONTINUOUS
 62
     4
100
AcDbText
 10
-779.6427775658046
 20
-1292.922287464725
 30
0.0
 40
64.0
  1
D2
 41
0.9
100
AcDbText
  0
TEXT
  5
6C
330
1E
100
AcDbEntity
  8
NOTE
  6
CONTINUOUS
 62
     4
100
AcDbText
 10
-938.3582261843804
 20
-293.6727071894017
 30
0.0
 40
64.0
  1
(Ceiling opening)
 50
90.0
 41
0.9
100
AcDbText
  0
LINE
  5
6D
330
1E
100
AcDbEntity
  8
NOTE
  6
CONTINUOUS
 62
     4
100
AcDbLine
 10
287.0000000000002
 20
747.000000000001
 30
0.0
 11
679.4201655534716
 21
1124.5193060284
 31
0.0
  0
LINE
  5
6E
330
1E
100
AcDbEntity
  8
NOTE
  6
CONTINUOUS
 62
     4
100
AcDbLine
 10
-9.999999999999232
 20
-836.9999999999997
 30
0.0
 11
-446.766724643929
 21
-1646.85714451829
 31
0.0
  0
LINE
  5
6F
330
1E
100
AcDbEntity
  8
NOTE
  6
CONTINUOUS
 62
     4
100
AcDbLine
 10
-446.766724643929
 20
-1646.85714451829
 30
0.0
 11
-584.9908826439291
 21
-1646.85714451829
 31
0.0
  0
TEXT
  5
70
330
1E
100
AcDbEntity
  8
NOTE
  6
CONTINUOUS
 62
     4
100
AcDbText
 10
-557.0717936439291
 20
-1628.20224351829
 30
0.0
 40
64.0
  1
EL
 41
0.9
100
AcDbText
  0
LWPOLYLINE
  5
71
330
1E
100
AcDbEntity
  8
NOTE
  6
CONTINUOUS
 62
     4
100
AcDbPolyline
 90
        3
 70
     0
 43
0.0
 10
-19.3761711593
 20
-875.8855680664986
 10
-9.999999999999111
 20
-837.0
 10
-37.56278625292235
 20
-865.9878040249365
  0
LWPOLYLINE
  5
76
330
1E
100
AcDbEntity
  8
NOTE
  6
CONTINUOUS
 62
     4
100
AcDbPolyline
 90
        3
 70
     0
 43
0.0
 10
307.7561481725341
 20
781.1933084462355
 10
287.0
 20
747.0000000000003
 10
322.0720053789992
 20
766.2341986884643
  0
LWPOLYLINE
  5
7B
330
1E
100
AcDbEntity
  8
NOTE
  6
CONTINUOUS
 62
     4
100
AcDbPolyline
 90
        3
 70
     0
 43
0.0
 10
-81.98645156076148
 20
-874.4750470615468
 10
-68.00000000000043
 20
-837.0
 10
-98.85014626411841
 20
-862.4611165028152
  0
LWPOLYLINE
  5
80
330
1E
100
AcDbEntity
  8
NOTE
  6
CONTINUOUS
 62
     4
100
AcDbPolyline
 90
        3
 70
     0
 43
0.0
 10
-202.0904619999987
 20
-756.3468359999981
 10
-179.9999999999986
 20
-722.9999999999978
 10
-215.8043189999987
 20
-740.8339759999977
  0
LWPOLYLINE
  5
85
330
1E
100
AcDbEntity
  8
NOTE
  6
CONTINUOUS
 62
     4
100
AcDbPolyline
 90
        3
 70
     0
 43
0.0
 10
203.193292999999
 20
-819.7400899999978
 10
170.999999999999
 20
-795.9999999999978
 10
187.010163999999
 20
-832.6561679999977
  0
LWPOLYLINE
  5
8A
330
1E
100
AcDbEntity
  8
NOTE
  6
CONTINUOUS
 62
     4
100
AcDbPolyline
 90
        3
 70
     0
 43
0.0
 10
130.0737412546033
 20
-817.4721232162873
 10
101.0000000000008
 20
-789.9999999999995
 10
112.442537267965
 20
-828.3284270497315
  0
LINE
  5
8F
330
1E
100
AcDbEntity
  8
NOTE
  6
CONTINUOUS
 62
     4
100
AcDbLine
 10
-286.9999999999998
 20
-766.9999999999983
 30
0.0
 11
-286.9999999999998
 21
-726.9999999999982
 31
0.0
  0
LINE
  5
90
330
1E
100
AcDbEntity
  8
NOTE
  6
CONTINUOUS
 62
     4
100
AcDbLine
 10
-306.9999999999998
 20
-746.9999999999982
 30
0.0
 11
-266.9999999999999
 21
-746.9999999999982
 31
0.0
  0
LINE
  5
91
330
1E
100
AcDbEntity
  8
NOTE
  6
CONTINUOUS
 62
     4
100
AcDbLine
 10
287.0
 20
-766.9999999999985
 30
0.0
 11
287.0
 21
-726.9999999999985
 31
0.0
  0
LINE
  5
92
330
1E
100
AcDbEntity
  8
NOTE
  6
CONTINUOUS
 62
     4
100
AcDbLine
 10
267.0
 20
-746.9999999999985
 30
0.0
 11
307.0
 21
-746.9999999999985
 31
0.0
  0
LINE
  5
93
330
1E
100
AcDbEntity
  8
NOTE
  6
CONTINUOUS
 62
     4
100
AcDbLine
 10
287.0
 20
727.000000000001
 30
0.0
 11
287.0
 21
767.0000000000007
 31
0.0
  0
LINE
  5
94
330
1E
100
AcDbEntity
  8
NOTE
  6
CONTINUOUS
 62
     4
100
AcDbLine
 10
267.0
 20
747.000000000001
 30
0.0
 11
307.0
 21
747.000000000001
 31
0.0
  0
LINE
  5
95
330
1E
100
AcDbEntity
  8
NOTE
  6
CONTINUOUS
 62
     4
100
AcDbLine
 10
-286.9999999999993
 20
727.0000000000003
 30
0.0
 11
-286.9999999999993
 21
767.0000000000003
 31
0.0
  0
LINE
  5
96
330
1E
100
AcDbEntity
  8
NOTE
  6
CONTINUOUS
 62
     4
100
AcDbLine
 10
-306.9999999999993
 20
747.0000000000003
 30
0.0
 11
-266.9999999999993
 21
747.0000000000003
 31
0.0
  0
TEXT
  5
97
330
1E
100
AcDbEntity
  8
0
  6
CONTINUOUS
 62
     7
100
AcDbText
 10
12761.29
 20
1934.172
 30
0.0
 40
3.2
  1
 
 50
0.000003
 41
0.5989580000000001
  7
STANDARD1
100
AcDbText
  0
CIRCLE
  5
98
330
1E
100
AcDbEntity
  8
FIX
  6
CONTINUOUS
 62
    11
100
AcDbCircle
 10
-286.9999999999993
 20
747.0000000000003
 30
0.0
 40
20.0
  0
CIRCLE
  5
99
330
1E
100
AcDbEntity
  8
FIX
  6
CONTINUOUS
 62
    11
100
AcDbCircle
 10
287.0
 20
747.000000000001
 30
0.0
 40
20.0
  0
CIRCLE
  5
9A
330
1E
100
AcDbEntity
  8
FIX
  6
CONTINUOUS
 62
    11
100
AcDbCircle
 10
-286.9999999999998
 20
-746.9999999999982
 30
0.0
 40
20.0
  0
CIRCLE
  5
9B
330
1E
100
AcDbEntity
  8
FIX
  6
CONTINUOUS
 62
    11
100
AcDbCircle
 10
287.0
 20
-746.9999999999985
 30
0.0
 40
20.0
  0
LINE
  5
9C
330
1E
100
AcDbEntity
  8
SIZE
  6
CONTINUOUS
 62
    30
100
AcDbLine
 10
355.0
 20
-854.9999999999997
 30
0.0
 11
1279.882061852944
 21
-855.0
 31
0.0
  0
LINE
  5
9D
330
1E
100
AcDbEntity
  8
SIZE
  6
CONTINUOUS
 62
    30
100
AcDbLine
 10
334.9999999999998
 20
-746.9999999999985
 30
0.0
 11
1279.882061852944
 21
-746.9999999999987
 31
0.0
  0
LINE
  5
9E
330
1E
100
AcDbEntity
  8
SIZE
  6
CONTINUOUS
 62
    30
100
AcDbLine
 10
1249.882061852944
 20
-756.9999999999987
 30
0.0
 11
1249.882061852944
 21
-845.0
 31
0.0
  0
LINE
  5
9F
330
1E
100
AcDbEntity
  8
SIZE
  6
CONTINUOUS
 62
    30
100
AcDbLine
 10
1249.882061852944
 20
-854.9999999999997
 30
0.0
 11
1249.882061852944
 21
-1042.142857142857
 31
0.0
  0
CIRCLE
  5
A0
330
1E
100
AcDbEntity
  8
SIZE
  6
CONTINUOUS
 62
    30
100
AcDbCircle
 10
1249.882061852944
 20
-746.9999999999987
 30
0.0
 40
5.0
  0
LINE
  5
A1
330
1E
100
AcDbEntity
  8
SIZE
  6
CONTINUOUS
 62
    30
100
AcDbLine
 10
1249.882061852944
 20
-751.9999999999988
 30
0.0
 11
1249.882061852944
 21
-756.9999999999987
 31
0.0
  0
CIRCLE
  5
A2
330
1E
100
AcDbEntity
  8
SIZE
  6
CONTINUOUS
 62
    30
100
AcDbCircle
 10
1249.882061852944
 20
-854.9999999999997
 30
0.0
 40
5.0
  0
LINE
  5
A3
330
1E
100
AcDbEntity
  8
SIZE
  6
CONTINUOUS
 62
    30
100
AcDbLine
 10
1249.882061852944
 20
-849.9999999999996
 30
0.0
 11
1249.882061852944
 21
-844.9999999999997
 31
0.0
  0
TEXT
  5
A4
330
1E
100
AcDbEntity
  8
SIZE
  6
CONTINUOUS
 62
    30
100
AcDbText
 10
1229.882061852944
 20
-1022.142857142857
 30
0.0
 40
64.0
  1
108
 50
90.0
 41
0.9
 72
     1
 11
1229.882061852944
 21
-953.5714285714286
 31
0.0
100
AcDbText
  0
POINT
  5
A5
330
1E
100
AcDbEntity
  8
DEFPOINTS
  6
CONTINUOUS
 62
     7
100
AcDbPoint
 10
335.0
 20
-854.9999999999997
 30
0.0
  0
POINT
  5
A6
330
1E
100
AcDbEntity
  8
DEFPOINTS
  6
CONTINUOUS
 62
     7
100
AcDbPoint
 10
314.9999999999999
 20
-746.9999999999985
 30
0.0
  0
POINT
  5
A7
330
1E
100
AcDbEntity
  8
DEFPOINTS
  6
CONTINUOUS
 62
     7
100
AcDbPoint
 10
1249.882061852944
 20
-746.9999999999987
 30
0.0
  0
LINE
  5
A8
330
1E
100
AcDbEntity
  8
SIZE
  6
CONTINUOUS
 62
    30
100
AcDbLine
 10
335.0
 20
747.000000000001
 30
0.0
 11
1279.882061852944
 21
747.0000000000005
 31
0.0
  0
LINE
  5
A9
330
1E
100
AcDbEntity
  8
SIZE
  6
CONTINUOUS
 62
    30
100
AcDbLine
 10
355.0
 20
855.0
 30
0.0
 11
1279.882061852944
 21
854.9999999999997
 31
0.0
  0
LINE
  5
AA
330
1E
100
AcDbEntity
  8
SIZE
  6
CONTINUOUS
 62
    30
100
AcDbLine
 10
1249.882061852944
 20
757.0000000000008
 30
0.0
 11
1249.882061852944
 21
845.0
 31
0.0
  0
LINE
  5
AB
330
1E
100
AcDbEntity
  8
SIZE
  6
CONTINUOUS
 62
    30
100
AcDbLine
 10
1249.882061852944
 20
855.0
 30
0.0
 11
1249.882061852944
 21
1042.142857142857
 31
0.0
  0
CIRCLE
  5
AC
330
1E
100
AcDbEntity
  8
SIZE
  6
CONTINUOUS
 62
    30
100
AcDbCircle
 10
1249.882061852944
 20
747.0000000000005
 30
0.0
 40
5.0
  0
LINE
  5
AD
330
1E
100
AcDbEntity
  8
SIZE
  6
CONTINUOUS
 62
    30
100
AcDbLine
 10
1249.882061852944
 20
752.0000000000005
 30
0.0
 11
1249.882061852944
 21
757.0000000000005
 31
0.0
  0
CIRCLE
  5
AE
330
1E
100
AcDbEntity
  8
SIZE
  6
CONTINUOUS
 62
    30
100
AcDbCircle
 10
1249.882061852944
 20
855.0
 30
0.0
 40
5.0
  0
LINE
  5
AF
330
1E
100
AcDbEntity
  8
SIZE
  6
CONTINUOUS
 62
    30
100
AcDbLine
 10
1249.882061852944
 20
850.0
 30
0.0
 11
1249.882061852944
 21
845.0
 31
0.0
  0
TEXT
  5
B0
330
1E
100
AcDbEntity
  8
SIZE
  6
CONTINUOUS
 62
    30
100
AcDbText
 10
1229.882061852944
 20
885.0
 30
0.0
 40
64.0
  1
108
 50
90.0
 41
0.9
 72
     1
 11
1229.882061852944
 21
953.5714285714286
 31
0.0
100
AcDbText
  0
POINT
  5
B1
330
1E
100
AcDbEntity
  8
DEFPOINTS
  6
CONTINUOUS
 62
     7
100
AcDbPoint
 10
315.0
 20
747.000000000001
 30
0.0
  0
POINT
  5
B2
330
1E
100
AcDbEntity
  8
DEFPOINTS
  6
CONTINUOUS
 62
     7
100
AcDbPoint
 10
335.0
 20
855.0
 30
0.0
  0
POINT
  5
B3
330
1E
100
AcDbEntity
  8
DEFPOINTS
  6
CONTINUOUS
 62
     7
100
AcDbPoint
 10
1249.882061852944
 20
855.0
 30
0.0
  0
TEXT
  5
B4
330
1E
100
AcDbEntity
  8
NOTE
  6
CONTINUOUS
 62
     4
100
AcDbText
 10
-384.5393073073158
 20
1199.303028328711
 30
0.0
 40
64.0
  1
(Lifting bolt pitch)
 41
0.9
100
AcDbText
  0
TEXT
  5
B5
330
1E
100
AcDbEntity
  8
NOTE
  6
CONTINUOUS
 62
     4
100
AcDbText
 10
1374.693553540011
 20
-389.569399852881
 30
0.0
 40
64.0
  1
(Lifting bolt pitch)
 50
90.0
 41
0.9
100
AcDbText
  0
TEXT
  5
B6
330
1E
100
AcDbEntity
  8
NOTE
  6
CONTINUOUS
 62
     4
100
AcDbText
 10
-351.8598500335559
 20
1486.570224733691
 30
0.0
 40
64.0
  1
(Ceiling opening)
 41
0.9
100
AcDbText
  0
LINE
  5
B7
330
1E
100
AcDbEntity
  8
SIZE
  6
CONTINUOUS
 62
    30
100
AcDbLine
 10
-354.9999999999998
 20
855.0
 30
0.0
 11
-849.7089385941873
 21
855.0
 31
0.0
  0
LINE
  5
B8
330
1E
100
AcDbEntity
  8
SIZE
  6
CONTINUOUS
 62
    30
100
AcDbLine
 10
-358.9999999999998
 20
875.0000000000001
 30
0.0
 11
-849.7089385941873
 21
875.0000000000001
 31
0.0
  0
LINE
  5
B9
330
1E
100
AcDbEntity
  8
SIZE
  6
CONTINUOUS
 62
    30
100
AcDbLine
 10
-819.7089385941868
 20
845.0000000000001
 30
0.0
 11
-819.7089385941868
 21
835.0000000000003
 31
0.0
  0
LINE
  5
BA
330
1E
100
AcDbEntity
  8
SIZE
  6
CONTINUOUS
 62
    30
100
AcDbLine
 10
-819.7089385941868
 20
885.0000000000003
 30
0.0
 11
-819.7089385941868
 21
1028.257142857142
 31
0.0
  0
LINE
  5
BB
330
1E
100
AcDbEntity
  8
SIZE
  6
CONTINUOUS
 62
    30
100
AcDbLine
 10
-819.7089385941868
 20
855.0
 30
0.0
 11
-819.7089385941868
 21
875.0000000000001
 31
0.0
  0
CIRCLE
  5
BC
330
1E
100
AcDbEntity
  8
SIZE
  6
CONTINUOUS
 62
    30
100
AcDbCircle
 10
-819.7089385941868
 20
855.0
 30
0.0
 40
5.0
  0
LINE
  5
BD
330
1E
100
AcDbEntity
  8
SIZE
  6
CONTINUOUS
 62
    30
100
AcDbLine
 10
-819.7089385941868
 20
850.0000000000001
 30
0.0
 11
-819.7089385941868
 21
845.0000000000001
 31
0.0
  0
CIRCLE
  5
BE
330
1E
100
AcDbEntity
  8
SIZE
  6
CONTINUOUS
 62
    30
100
AcDbCircle
 10
-819.7089385941868
 20
875.0000000000001
 30
0.0
 40
5.0
  0
LINE
  5
BF
330
1E
100
AcDbEntity
  8
SIZE
  6
CONTINUOUS
 62
    30
100
AcDbLine
 10
-819.7089385941868
 20
880.0
 30
0.0
 11
-819.7089385941868
 21
885.0000000000001
 31
0.0
  0
TEXT
  5
C0
330
1E
100
AcDbEntity
  8
SIZE
  6
CONTINUOUS
 62
    30
100
AcDbText
 10
-839.7089385941873
 20
915.0000000000002
 30
0.0
 40
64.0
  1
20
 50
90.0
 41
0.9
 72
     1
 11
-839.7089385941873
 21
961.6285714285716
 31
0.0
100
AcDbText
  0
POINT
  5
C1
330
1E
100
AcDbEntity
  8
DEFPOINTS
  6
CONTINUOUS
 62
     7
100
AcDbPoint
 10
-334.9999999999998
 20
855.0
 30
0.0
  0
POINT
  5
C2
330
1E
100
AcDbEntity
  8
DEFPOINTS
  6
CONTINUOUS
 62
     7
100
AcDbPoint
 10
-338.9999999999998
 20
875.0000000000001
 30
0.0
  0
POINT
  5
C3
330
1E
100
AcDbEntity
  8
DEFPOINTS
  6
CONTINUOUS
 62
     7
100
AcDbPoint
 10
-819.7089385941868
 20
875.0000000000001
 30
0.0
  0
LINE
  5
C4
330
1E
100
AcDbEntity
  8
SIZE
  6
CONTINUOUS
 62
    30
100
AcDbLine
 10
-354.9999999999998
 20
-854.9999999999997
 30
0.0
 11
-849.7089385941873
 21
-854.9999999999997
 31
0.0
  0
LINE
  5
C5
330
1E
100
AcDbEntity
  8
SIZE
  6
CONTINUOUS
 62
    30
100
AcDbLine
 10
-354.9999999999998
 20
-874.9999999999996
 30
0.0
 11
-849.7089385941873
 21
-874.9999999999996
 31
0.0
  0
LINE
  5
C6
330
1E
100
AcDbEntity
  8
SIZE
  6
CONTINUOUS
 62
    30
100
AcDbLine
 10
-819.7089385941874
 20
-844.9999999999997
 30
0.0
 11
-819.7089385941874
 21
-834.9999999999996
 31
0.0
  0
LINE
  5
C7
330
1E
100
AcDbEntity
  8
SIZE
  6
CONTINUOUS
 62
    30
100
AcDbLine
 10
-819.7089385941874
 20
-884.9999999999996
 30
0.0
 11
-819.7089385941874
 21
-1028.257142857142
 31
0.0
  0
LINE
  5
C8
330
1E
100
AcDbEntity
  8
SIZE
  6
CONTINUOUS
 62
    30
100
AcDbLine
 10
-819.7089385941874
 20
-854.9999999999997
 30
0.0
 11
-819.7089385941874
 21
-874.9999999999996
 31
0.0
  0
CIRCLE
  5
C9
330
1E
100
AcDbEntity
  8
SIZE
  6
CONTINUOUS
 62
    30
100
AcDbCircle
 10
-819.7089385941874
 20
-854.9999999999997
 30
0.0
 40
5.0
  0
LINE
  5
CA
330
1E
100
AcDbEntity
  8
SIZE
  6
CONTINUOUS
 62
    30
100
AcDbLine
 10
-819.7089385941874
 20
-849.9999999999996
 30
0.0
 11
-819.7089385941874
 21
-844.9999999999997
 31
0.0
  0
CIRCLE
  5
CB
330
1E
100
AcDbEntity
  8
SIZE
  6
CONTINUOUS
 62
    30
100
AcDbCircle
 10
-819.7089385941874
 20
-874.9999999999996
 30
0.0
 40
5.0
  0
LINE
  5
CC
330
1E
100
AcDbEntity
  8
SIZE
  6
CONTINUOUS
 62
    30
100
AcDbLine
 10
-819.7089385941874
 20
-879.9999999999995
 30
0.0
 11
-819.7089385941874
 21
-884.9999999999996
 31
0.0
  0
TEXT
  5
CD
330
1E
100
AcDbEntity
  8
SIZE
  6
CONTINUOUS
 62
    30
100
AcDbText
 10
-839.7089385941873
 20
-1008.257142857142
 30
0.0
 40
64.0
  1
20
 50
90.0
 41
0.9
 72
     1
 11
-839.7089385941873
 21
-961.6285714285712
 31
0.0
100
AcDbText
  0
POINT
  5
CE
330
1E
100
AcDbEntity
  8
DEFPOINTS
  6
CONTINUOUS
 62
     7
100
AcDbPoint
 10
-334.9999999999998
 20
-854.9999999999997
 30
0.0
  0
POINT
  5
CF
330
1E
100
AcDbEntity
  8
DEFPOINTS
  6
CONTINUOUS
 62
     7
100
AcDbPoint
 10
-334.9999999999998
 20
-874.9999999999996
 30
0.0
  0
POINT
  5
D0
330
1E
100
AcDbEntity
  8
DEFPOINTS
  6
CONTINUOUS
 62
     7
100
AcDbPoint
 10
-819.7089385941874
 20
-874.9999999999996
 30
0.0
  0
LINE
  5
D1
330
1E
100
AcDbEntity
  8
SIZE
  6
CONTINUOUS
 62
    30
100
AcDbLine
 10
-354.9999999999998
 20
-878.9999999999997
 30
0.0
 11
-355.0
 21
-1764.578
 31
0.0
  0
LINE
  5
D2
330
1E
100
AcDbEntity
  8
SIZE
  6
CONTINUOUS
 62
    30
100
AcDbLine
 10
355.0
 20
-878.9999999999997
 30
0.0
 11
354.9999999999998
 21
-1764.578
 31
0.0
  0
LINE
  5
D3
330
1E
100
AcDbEntity
  8
SIZE
  6
CONTINUOUS
 62
    30
100
AcDbLine
 10
-345.0
 20
-1734.578
 30
0.0
 11
344.9999999999998
 21
-1734.578
 31
0.0
  0
CIRCLE
  5
D4
330
1E
100
AcDbEntity
  8
SIZE
  6
CONTINUOUS
 62
    30
100
AcDbCircle
 10
-355.0
 20
-1734.578
 30
0.0
 40
5.0
  0
LINE
  5
D5
330
1E
100
AcDbEntity
  8
SIZE
  6
CONTINUOUS
 62
    30
100
AcDbLine
 10
-350.0
 20
-1734.578
 30
0.0
 11
-345.0
 21
-1734.578
 31
0.0
  0
CIRCLE
  5
D6
330
1E
100
AcDbEntity
  8
SIZE
  6
CONTINUOUS
 62
    30
100
AcDbCircle
 10
354.9999999999998
 20
-1734.578
 30
0.0
 40
5.0
  0
LINE
  5
D7
330
1E
100
AcDbEntity
  8
SIZE
  6
CONTINUOUS
 62
    30
100
AcDbLine
 10
349.9999999999998
 20
-1734.578
 30
0.0
 11
344.9999999999998
 21
-1734.578
 31
0.0
  0
TEXT
  5
D8
330
1E
100
AcDbEntity
  8
SIZE
  6
CONTINUOUS
 62
    30
100
AcDbText
 10
-68.5714285714286
 20
-1714.577999999999
 30
0.0
 40
64.0
  1
710
 41
0.9
 72
     1
 11
-0.0000000000000284
 21
-1714.577999999999
 31
0.0
100
AcDbText
  0
POINT
  5
D9
330
1E
100
AcDbEntity
  8
DEFPOINTS
  6
CONTINUOUS
 62
     7
100
AcDbPoint
 10
-354.9999999999998
 20
-858.9999999999996
 30
0.0
  0
POINT
  5
DA
330
1E
100
AcDbEntity
  8
DEFPOINTS
  6
CONTINUOUS
 62
     7
100
AcDbPoint
 10
355.0
 20
-858.9999999999996
 30
0.0
  0
POINT
  5
DB
330
1E
100
AcDbEntity
  8
DEFPOINTS
  6
CONTINUOUS
 62
     7
100
AcDbPoint
 10
354.9999999999998
 20
-1734.578
 30
0.0
  0
LINE
  5
DC
330
1E
100
AcDbEntity
  8
SIZE
  6
CONTINUOUS
 62
    30
100
AcDbLine
 10
-286.9999999999998
 20
787.0000000000012
 30
0.0
 11
-286.9999999999998
 21
1079.907031999998
 31
0.0
  0
LINE
  5
DD
330
1E
100
AcDbEntity
  8
SIZE
  6
CONTINUOUS
 62
    30
100
AcDbLine
 10
287.0
 20
787.000000000001
 30
0.0
 11
287.0
 21
1079.907031999998
 31
0.0
  0
LINE
  5
DE
330
1E
100
AcDbEntity
  8
SIZE
  6
CONTINUOUS
 62
    30
100
AcDbLine
 10
-276.9999999999999
 20
1049.907031999998
 30
0.0
 11
277.0
 21
1049.907031999998
 31
0.0
  0
CIRCLE
  5
DF
330
1E
100
AcDbEntity
  8
SIZE
  6
CONTINUOUS
 62
    30
100
AcDbCircle
 10
-286.9999999999998
 20
1049.907031999998
 30
0.0
 40
5.0
  0
LINE
  5
E0
330
1E
100
AcDbEntity
  8
SIZE
  6
CONTINUOUS
 62
    30
100
AcDbLine
 10
-281.9999999999998
 20
1049.907031999998
 30
0.0
 11
-276.9999999999999
 21
1049.907031999998
 31
0.0
  0
CIRCLE
  5
E1
330
1E
100
AcDbEntity
  8
SIZE
  6
CONTINUOUS
 62
    30
100
AcDbCircle
 10
287.0
 20
1049.907031999998
 30
0.0
 40
5.0
  0
LINE
  5
E2
330
1E
100
AcDbEntity
  8
SIZE
  6
CONTINUOUS
 62
    30
100
AcDbLine
 10
282.0
 20
1049.907031999998
 30
0.0
 11
277.0
 21
1049.907031999998
 31
0.0
  0
TEXT
  5
E3
330
1E
100
AcDbEntity
  8
SIZE
  6
CONTINUOUS
 62
    30
100
AcDbText
 10
-75.42857142857133
 20
1069.907031999998
 30
0.0
 40
64.0
  1
574
 41
0.9
 72
     1
 11
0.0000000000000853
 21
1069.907031999998
 31
0.0
100
AcDbText
  0
POINT
  5
E4
330
1E
100
AcDbEntity
  8
DEFPOINTS
  6
CONTINUOUS
 62
     7
100
AcDbPoint
 10
-286.9999999999998
 20
767.0000000000012
 30
0.0
  0
POINT
  5
E5
330
1E
100
AcDbEntity
  8
DEFPOINTS
  6
CONTINUOUS
 62
     7
100
AcDbPoint
 10
287.0
 20
767.000000000001
 30
0.0
  0
POINT
  5
E6
330
1E
100
AcDbEntity
  8
DEFPOINTS
  6
CONTINUOUS
 62
     7
100
AcDbPoint
 10
287.0
 20
1049.907031999998
 30
0.0
  0
LINE
  5
E7
330
1E
100
AcDbEntity
  8
SIZE
  6
CONTINUOUS
 62
    30
100
AcDbLine
 10
-334.9999999999998
 20
875.0000000000001
 30
0.0
 11
-334.9999999999997
 21
1369.633812723137
 31
0.0
  0
LINE
  5
E8
330
1E
100
AcDbEntity
  8
SIZE
  6
CONTINUOUS
 62
    30
100
AcDbLine
 10
335.0
 20
875.0000000000001
 30
0.0
 11
335.0
 21
1369.633812723137
 31
0.0
  0
LINE
  5
E9
330
1E
100
AcDbEntity
  8
SIZE
  6
CONTINUOUS
 62
    30
100
AcDbLine
 10
-324.9999999999999
 20
1339.633812723137
 30
0.0
 11
325.0
 21
1339.633812723137
 31
0.0
  0
CIRCLE
  5
EA
330
1E
100
AcDbEntity
  8
SIZE
  6
CONTINUOUS
 62
    30
100
AcDbCircle
 10
-334.9999999999997
 20
1339.633812723137
 30
0.0
 40
5.0
  0
LINE
  5
EB
330
1E
100
AcDbEntity
  8
SIZE
  6
CONTINUOUS
 62
    30
100
AcDbLine
 10
-329.9999999999997
 20
1339.633812723137
 30
0.0
 11
-324.9999999999997
 21
1339.633812723137
 31
0.0
  0
CIRCLE
  5
EC
330
1E
100
AcDbEntity
  8
SIZE
  6
CONTINUOUS
 62
    30
100
AcDbCircle
 10
335.0
 20
1339.633812723137
 30
0.0
 40
5.0
  0
LINE
  5
ED
330
1E
100
AcDbEntity
  8
SIZE
  6
CONTINUOUS
 62
    30
100
AcDbLine
 10
330.0
 20
1339.633812723137
 30
0.0
 11
325.0
 21
1339.633812723137
 31
0.0
  0
TEXT
  5
EE
330
1E
100
AcDbEntity
  8
SIZE
  6
CONTINUOUS
 62
    30
100
AcDbText
 10
-74.05714285714276
 20
1359.633812723137
 30
0.0
 40
64.0
  1
670
 41
0.9
 72
     1
 11
0.0000000000000853
 21
1359.633812723137
 31
0.0
100
AcDbText
  0
POINT
  5
EF
330
1E
100
AcDbEntity
  8
DEFPOINTS
  6
CONTINUOUS
 62
     7
100
AcDbPoint
 10
-334.9999999999998
 20
855.0
 30
0.0
  0
POINT
  5
F0
330
1E
100
AcDbEntity
  8
DEFPOINTS
  6
CONTINUOUS
 62
     7
100
AcDbPoint
 10
335.0
 20
855.0
 30
0.0
  0
POINT
  5
F1
330
1E
100
AcDbEntity
  8
DEFPOINTS
  6
CONTINUOUS
 62
     7
100
AcDbPoint
 10
335.0
 20
1339.633812723137
 30
0.0
  0
LINE
  5
F2
330
1E
100
AcDbEntity
  8
SIZE
  6
CONTINUOUS
 62
    30
100
AcDbLine
 10
-286.9999999999998
 20
787.0000000000012
 30
0.0
 11
-286.9999999999998
 21
1079.907031999998
 31
0.0
  0
LINE
  5
F3
330
1E
100
AcDbEntity
  8
SIZE
  6
CONTINUOUS
 62
    30
100
AcDbLine
 10
-334.9999999999998
 20
875.0000000000001
 30
0.0
 11
-334.9999999999998
 21
1079.907031999998
 31
0.0
  0
LINE
  5
F4
330
1E
100
AcDbEntity
  8
SIZE
  6
CONTINUOUS
 62
    30
100
AcDbLine
 10
-276.9999999999999
 20
1049.907031999998
 30
0.0
 11
-266.9999999999999
 21
1049.907031999998
 31
0.0
  0
LINE
  5
F5
330
1E
100
AcDbEntity
  8
SIZE
  6
CONTINUOUS
 62
    30
100
AcDbLine
 10
-344.9999999999998
 20
1049.907031999998
 30
0.0
 11
-488.2571428571428
 21
1049.907031999998
 31
0.0
  0
LINE
  5
F6
330
1E
100
AcDbEntity
  8
SIZE
  6
CONTINUOUS
 62
    30
100
AcDbLine
 10
-286.9999999999998
 20
1049.907031999998
 30
0.0
 11
-334.9999999999998
 21
1049.907031999998
 31
0.0
  0
CIRCLE
  5
F7
330
1E
100
AcDbEntity
  8
SIZE
  6
CONTINUOUS
 62
    30
100
AcDbCircle
 10
-286.9999999999998
 20
1049.907031999998
 30
0.0
 40
5.0
  0
LINE
  5
F8
330
1E
100
AcDbEntity
  8
SIZE
  6
CONTINUOUS
 62
    30
100
AcDbLine
 10
-281.9999999999998
 20
1049.907031999998
 30
0.0
 11
-276.9999999999999
 21
1049.907031999998
 31
0.0
  0
CIRCLE
  5
F9
330
1E
100
AcDbEntity
  8
SIZE
  6
CONTINUOUS
 62
    30
100
AcDbCircle
 10
-334.9999999999998
 20
1049.907031999998
 30
0.0
 40
5.0
  0
LINE
  5
FA
330
1E
100
AcDbEntity
  8
SIZE
  6
CONTINUOUS
 62
    30
100
AcDbLine
 10
-339.9999999999999
 20
1049.907031999998
 30
0.0
 11
-344.9999999999998
 21
1049.907031999998
 31
0.0
  0
TEXT
  5
FB
330
1E
100
AcDbEntity
  8
SIZE
  6
CONTINUOUS
 62
    30
100
AcDbText
 10
-468.2571428571428
 20
1069.907031999998
 30
0.0
 40
64.0
  1
48
 41
0.9
 72
     1
 11
-421.6285714285714
 21
1069.907031999998
 31
0.0
100
AcDbText
  0
POINT
  5
FC
330
1E
100
AcDbEntity
  8
DEFPOINTS
  6
CONTINUOUS
 62
     7
100
AcDbPoint
 10
-286.9999999999998
 20
767.0000000000012
 30
0.0
  0
POINT
  5
FD
330
1E
100
AcDbEntity
  8
DEFPOINTS
  6
CONTINUOUS
 62
     7
100
AcDbPoint
 10
-334.9999999999998
 20
855.0
 30
0.0
  0
POINT
  5
FE
330
1E
100
AcDbEntity
  8
DEFPOINTS
  6
CONTINUOUS
 62
     7
100
AcDbPoint
 10
-334.9999999999998
 20
1049.907031999998
 30
0.0
  0
LINE
  5
FF
330
1E
100
AcDbEntity
  8
SIZE
  6
CONTINUOUS
 62
    30
100
AcDbLine
 10
287.0
 20
787.000000000001
 30
0.0
 11
287.0
 21
1079.907031999998
 31
0.0
  0
LINE
  5
100
330
1E
100
AcDbEntity
  8
SIZE
  6
CONTINUOUS
 62
    30
100
AcDbLine
 10
335.0
 20
875.0000000000001
 30
0.0
 11
335.0
 21
1079.907031999998
 31
0.0
  0
LINE
  5
101
330
1E
100
AcDbEntity
  8
SIZE
  6
CONTINUOUS
 62
    30
100
AcDbLine
 10
277.0
 20
1049.907031999998
 30
0.0
 11
267.0
 21
1049.907031999998
 31
0.0
  0
LINE
  5
102
330
1E
100
AcDbEntity
  8
SIZE
  6
CONTINUOUS
 62
    30
100
AcDbLine
 10
345.0
 20
1049.907031999998
 30
0.0
 11
488.2571428571428
 21
1049.907031999998
 31
0.0
  0
LINE
  5
103
330
1E
100
AcDbEntity
  8
SIZE
  6
CONTINUOUS
 62
    30
100
AcDbLine
 10
287.0
 20
1049.907031999998
 30
0.0
 11
335.0
 21
1049.907031999998
 31
0.0
  0
CIRCLE
  5
104
330
1E
100
AcDbEntity
  8
SIZE
  6
CONTINUOUS
 62
    30
100
AcDbCircle
 10
287.0
 20
1049.907031999998
 30
0.0
 40
5.0
  0
LINE
  5
105
330
1E
100
AcDbEntity
  8
SIZE
  6
CONTINUOUS
 62
    30
100
AcDbLine
 10
282.0
 20
1049.907031999998
 30
0.0
 11
277.0
 21
1049.907031999998
 31
0.0
  0
CIRCLE
  5
106
330
1E
100
AcDbEntity
  8
SIZE
  6
CONTINUOUS
 62
    30
100
AcDbCircle
 10
335.0
 20
1049.907031999998
 30
0.0
 40
5.0
  0
LINE
  5
107
330
1E
100
AcDbEntity
  8
SIZE
  6
CONTINUOUS
 62
    30
100
AcDbLine
 10
340.0
 20
1049.907031999998
 30
0.0
 11
345.0
 21
1049.907031999998
 31
0.0
  0
TEXT
  5
108
330
1E
100
AcDbEntity
  8
SIZE
  6
CONTINUOUS
 62
    30
100
AcDbText
 10
374.9999999999999
 20
1069.907031999998
 30
0.0
 40
64.0
  1
48
 41
0.9
 72
     1
 11
421.6285714285714
 21
1069.907031999998
 31
0.0
100
AcDbText
  0
POINT
  5
109
330
1E
100
AcDbEntity
  8
DEFPOINTS
  6
CONTINUOUS
 62
     7
100
AcDbPoint
 10
287.0
 20
767.000000000001
 30
0.0
  0
POINT
  5
10A
330
1E
100
AcDbEntity
  8
DEFPOINTS
  6
CONTINUOUS
 62
     7
100
AcDbPoint
 10
335.0
 20
855.0
 30
0.0
  0
POINT
  5
10B
330
1E
100
AcDbEntity
  8
DEFPOINTS
  6
CONTINUOUS
 62
     7
100
AcDbPoint
 10
335.0
 20
1049.907031999998
 30
0.0
  0
LINE
  5
10C
330
1E
100
AcDbEntity
  8
SIZE
  6
CONTINUOUS
 62
    30
100
AcDbLine
 10
-354.9999999999998
 20
879.0
 30
0.0
 11
-354.9999999999997
 21
1369.633812723137
 31
0.0
  0
LINE
  5
10D
330
1E
100
AcDbEntity
  8
SIZE
  6
CONTINUOUS
 62
    30
100
AcDbLine
 10
-334.9999999999998
 20
875.0000000000001
 30
0.0
 11
-334.9999999999997
 21
1369.633812723137
 31
0.0
  0
LINE
  5
10E
330
1E
100
AcDbEntity
  8
SIZE
  6
CONTINUOUS
 62
    30
100
AcDbLine
 10
-324.9999999999999
 20
1339.633812723137
 30
0.0
 11
-314.9999999999999
 21
1339.633812723137
 31
0.0
  0
LINE
  5
10F
330
1E
100
AcDbEntity
  8
SIZE
  6
CONTINUOUS
 62
    30
100
AcDbLine
 10
-364.9999999999999
 20
1339.633812723137
 30
0.0
 11
-508.2571428571426
 21
1339.633812723137
 31
0.0
  0
LINE
  5
110
330
1E
100
AcDbEntity
  8
SIZE
  6
CONTINUOUS
 62
    30
100
AcDbLine
 10
-334.9999999999997
 20
1339.633812723137
 30
0.0
 11
-354.9999999999997
 21
1339.633812723137
 31
0.0
  0
CIRCLE
  5
111
330
1E
100
AcDbEntity
  8
SIZE
  6
CONTINUOUS
 62
    30
100
AcDbCircle
 10
-334.9999999999997
 20
1339.633812723137
 30
0.0
 40
5.0
  0
LINE
  5
112
330
1E
100
AcDbEntity
  8
SIZE
  6
CONTINUOUS
 62
    30
100
AcDbLine
 10
-329.9999999999997
 20
1339.633812723137
 30
0.0
 11
-324.9999999999997
 21
1339.633812723137
 31
0.0
  0
CIRCLE
  5
113
330
1E
100
AcDbEntity
  8
SIZE
  6
CONTINUOUS
 62
    30
100
AcDbCircle
 10
-354.9999999999997
 20
1339.633812723137
 30
0.0
 40
5.0
  0
LINE
  5
114
330
1E
100
AcDbEntity
  8
SIZE
  6
CONTINUOUS
 62
    30
100
AcDbLine
 10
-359.9999999999997
 20
1339.633812723137
 30
0.0
 11
-364.9999999999997
 21
1339.633812723137
 31
0.0
  0
TEXT
  5
115
330
1E
100
AcDbEntity
  8
SIZE
  6
CONTINUOUS
 62
    30
100
AcDbText
 10
-488.2571428571426
 20
1359.633812723137
 30
0.0
 40
64.0
  1
20
 41
0.9
 72
     1
 11
-441.6285714285712
 21
1359.633812723137
 31
0.0
100
AcDbText
  0
POINT
  5
116
330
1E
100
AcDbEntity
  8
DEFPOINTS
  6
CONTINUOUS
 62
     7
100
AcDbPoint
 10
-354.9999999999998
 20
859.0000000000001
 30
0.0
  0
POINT
  5
117
330
1E
100
AcDbEntity
  8
DEFPOINTS
  6
CONTINUOUS
 62
     7
100
AcDbPoint
 10
-334.9999999999998
 20
855.0
 30
0.0
  0
POINT
  5
118
330
1E
100
AcDbEntity
  8
DEFPOINTS
  6
CONTINUOUS
 62
     7
100
AcDbPoint
 10
-334.9999999999997
 20
1339.633812723137
 30
0.0
  0
LINE
  5
119
330
1E
100
AcDbEntity
  8
SIZE
  6
CONTINUOUS
 62
    30
100
AcDbLine
 10
335.0
 20
875.0000000000001
 30
0.0
 11
335.0
 21
1369.633812723137
 31
0.0
  0
LINE
  5
11A
330
1E
100
AcDbEntity
  8
SIZE
  6
CONTINUOUS
 62
    30
100
AcDbLine
 10
355.0
 20
879.0
 30
0.0
 11
355.0
 21
1369.633812723137
 31
0.0
  0
LINE
  5
11B
330
1E
100
AcDbEntity
  8
SIZE
  6
CONTINUOUS
 62
    30
100
AcDbLine
 10
325.0
 20
1339.633812723137
 30
0.0
 11
315.0
 21
1339.633812723137
 31
0.0
  0
LINE
  5
11C
330
1E
100
AcDbEntity
  8
SIZE
  6
CONTINUOUS
 62
    30
100
AcDbLine
 10
365.0
 20
1339.633812723137
 30
0.0
 11
508.2571428571427
 21
1339.633812723137
 31
0.0
  0
LINE
  5
11D
330
1E
100
AcDbEntity
  8
SIZE
  6
CONTINUOUS
 62
    30
100
AcDbLine
 10
335.0
 20
1339.633812723137
 30
0.0
 11
355.0
 21
1339.633812723137
 31
0.0
  0
CIRCLE
  5
11E
330
1E
100
AcDbEntity
  8
SIZE
  6
CONTINUOUS
 62
    30
100
AcDbCircle
 10
335.0
 20
1339.633812723137
 30
0.0
 40
5.0
  0
LINE
  5
11F
330
1E
100
AcDbEntity
  8
SIZE
  6
CONTINUOUS
 62
    30
100
AcDbLine
 10
330.0
 20
1339.633812723137
 30
0.0
 11
325.0
 21
1339.633812723137
 31
0.0
  0
CIRCLE
  5
120
330
1E
100
AcDbEntity
  8
SIZE
  6
CONTINUOUS
 62
    30
100
AcDbCircle
 10
355.0
 20
1339.633812723137
 30
0.0
 40
5.0
  0
LINE
  5
121
330
1E
100
AcDbEntity
  8
SIZE
  6
CONTINUOUS
 62
    30
100
AcDbLine
 10
360.0
 20
1339.633812723137
 30
0.0
 11
365.0
 21
1339.633812723137
 31
0.0
  0
TEXT
  5
122
330
1E
100
AcDbEntity
  8
SIZE
  6
CONTINUOUS
 62
    30
100
AcDbText
 10
395.0
 20
1359.633812723137
 30
0.0
 40
64.0
  1
20
 41
0.9
 72
     1
 11
441.6285714285715
 21
1359.633812723137
 31
0.0
100
AcDbText
  0
POINT
  5
123
330
1E
100
AcDbEntity
  8
DEFPOINTS
  6
CONTINUOUS
 62
     7
100
AcDbPoint
 10
335.0
 20
855.0
 30
0.0
  0
POINT
  5
124
330
1E
100
AcDbEntity
  8
DEFPOINTS
  6
CONTINUOUS
 62
     7
100
AcDbPoint
 10
355.0
 20
859.0000000000001
 30
0.0
  0
POINT
  5
125
330
1E
100
AcDbEntity
  8
DEFPOINTS
  6
CONTINUOUS
 62
     7
100
AcDbPoint
 10
355.0
 20
1339.633812723137
 30
0.0
  0
LINE
  5
126
330
1E
100
AcDbEntity
  8
SIZE
  6
CONTINUOUS
 62
    30
100
AcDbLine
 10
-316.9999999999999
 20
-862.9999999999995
 30
0.0
 11
-317.0
 21
-1631.89901
 31
0.0
  0
LINE
  5
127
330
1E
100
AcDbEntity
  8
SIZE
  6
CONTINUOUS
 62
    30
100
AcDbLine
 10
317.0
 20
-862.9999999999997
 30
0.0
 11
317.0
 21
-1631.89901
 31
0.0
  0
LINE
  5
128
330
1E
100
AcDbEntity
  8
SIZE
  6
CONTINUOUS
 62
    30
100
AcDbLine
 10
-307.0
 20
-1601.89901
 30
0.0
 11
307.0
 21
-1601.89901
 31
0.0
  0
CIRCLE
  5
129
330
1E
100
AcDbEntity
  8
SIZE
  6
CONTINUOUS
 62
    30
100
AcDbCircle
 10
-317.0
 20
-1601.89901
 30
0.0
 40
5.0
  0
LINE
  5
12A
330
1E
100
AcDbEntity
  8
SIZE
  6
CONTINUOUS
 62
    30
100
AcDbLine
 10
-312.0
 20
-1601.89901
 30
0.0
 11
-307.0
 21
-1601.89901
 31
0.0
  0
CIRCLE
  5
12B
330
1E
100
AcDbEntity
  8
SIZE
  6
CONTINUOUS
 62
    30
100
AcDbCircle
 10
317.0
 20
-1601.89901
 30
0.0
 40
5.0
  0
LINE
  5
12C
330
1E
100
AcDbEntity
  8
SIZE
  6
CONTINUOUS
 62
    30
100
AcDbLine
 10
312.0
 20
-1601.89901
 30
0.0
 11
307.0
 21
-1601.89901
 31
0.0
  0
TEXT
  5
12D
330
1E
100
AcDbEntity
  8
SIZE
  6
CONTINUOUS
 62
    30
100
AcDbText
 10
-75.42857142857141
 20
-1581.899009999999
 30
0.0
 40
64.0
  1
634
 41
0.9
 72
     1
 11
0.0
 21
-1581.899009999999
 31
0.0
100
AcDbText
  0
POINT
  5
12E
330
1E
100
AcDbEntity
  8
DEFPOINTS
  6
CONTINUOUS
 62
     7
100
AcDbPoint
 10
-316.9999999999999
 20
-842.9999999999996
 30
0.0
  0
POINT
  5
12F
330
1E
100
AcDbEntity
  8
DEFPOINTS
  6
CONTINUOUS
 62
     7
100
AcDbPoint
 10
317.0
 20
-842.9999999999996
 30
0.0
  0
POINT
  5
130
330
1E
100
AcDbEntity
  8
DEFPOINTS
  6
CONTINUOUS
 62
     7
100
AcDbPoint
 10
317.0
 20
-1601.89901
 30
0.0
  0
LINE
  5
131
330
1E
100
AcDbEntity
  8
DETAIL
  6
CONTINUOUS
 62
     5
100
AcDbLine
 10
-262.0
 20
773.000000000001
 30
0.0
 11
-280.9999999999993
 21
773.000000000001
 31
0.0
  0
LINE
  5
132
330
1E
100
AcDbEntity
  8
DETAIL
  6
CONTINUOUS
 62
     5
100
AcDbLine
 10
-292.9999999999994
 20
773.000000000001
 30
0.0
 11
-312.0
 21
773.000000000001
 31
0.0
  0
ARC
  5
133
330
1E
100
AcDbEntity
  8
DETAIL
  6
CONTINUOUS
 62
     5
100
AcDbCircle
 10
-294.9999999999993
 20
747.0000000000003
 30
0.0
 40
7.0
100
AcDbArc
 50
90.0
 51
270.0
  0
ARC
  5
134
330
1E
100
AcDbEntity
  8
DETAIL
  6
CONTINUOUS
 62
     5
100
AcDbCircle
 10
-278.9999999999993
 20
747.0000000000003
 30
0.0
 40
7.0
100
AcDbArc
 50
270.0
 51
90.0
  0
LINE
  5
135
330
1E
100
AcDbEntity
  8
DETAIL
  6
CONTINUOUS
 62
     5
100
AcDbLine
 10
-294.9999999999993
 20
740.0000000000003
 30
0.0
 11
-278.9999999999993
 21
740.0000000000003
 31
0.0
  0
LINE
  5
136
330
1E
100
AcDbEntity
  8
DETAIL
  6
CONTINUOUS
 62
     5
100
AcDbLine
 10
-294.9999999999993
 20
754.0000000000003
 30
0.0
 11
-292.9999999999994
 21
754.0000000000003
 31
0.0
  0
LINE
  5
137
330
1E
100
AcDbEntity
  8
DETAIL
  6
CONTINUOUS
 62
     5
100
AcDbLine
 10
-280.9999999999993
 20
754.0000000000003
 30
0.0
 11
-278.9999999999993
 21
754.0000000000003
 31
0.0
  0
LINE
  5
138
330
1E
100
AcDbEntity
  8
DETAIL
  6
CONTINUOUS
 62
     5
100
AcDbLine
 10
281.0000000000012
 20
773.0000000000003
 30
0.0
 11
262.0000000000006
 21
773.0000000000003
 31
0.0
  0
LINE
  5
139
330
1E
100
AcDbEntity
  8
DETAIL
  6
CONTINUOUS
 62
     5
100
AcDbLine
 10
281.0000000000012
 20
773.0000000000001
 30
0.0
 11
281.0000000000012
 21
753.9999999999995
 31
0.0
  0
ARC
  5
13A
330
1E
100
AcDbEntity
  8
DETAIL
  6
CONTINUOUS
 62
     5
100
AcDbCircle
 10
279.0000000000012
 20
746.9999999999995
 30
0.0
 40
7.0
100
AcDbArc
 50
90.0
 51
270.0
  0
LINE
  5
13B
330
1E
100
AcDbEntity
  8
DETAIL
  6
CONTINUOUS
 62
     5
100
AcDbLine
 10
279.0000000000012
 20
753.9999999999995
 30
0.0
 11
281.0000000000012
 21
753.9999999999995
 31
0.0
  0
LINE
  5
13C
330
1E
100
AcDbEntity
  8
DETAIL
  6
CONTINUOUS
 62
     5
100
AcDbLine
 10
279.0000000000012
 20
739.9999999999995
 30
0.0
 11
295.0000000000012
 21
739.9999999999995
 31
0.0
  0
ARC
  5
13D
330
1E
100
AcDbEntity
  8
DETAIL
  6
CONTINUOUS
 62
     5
100
AcDbCircle
 10
295.0000000000012
 20
746.9999999999995
 30
0.0
 40
7.0
100
AcDbArc
 50
270.0
 51
90.0
  0
LINE
  5
13E
330
1E
100
AcDbEntity
  8
DETAIL
  6
CONTINUOUS
 62
     5
100
AcDbLine
 10
293.0000000000012
 20
753.9999999999995
 30
0.0
 11
295.0000000000012
 21
753.9999999999995
 31
0.0
  0
LINE
  5
13F
330
1E
100
AcDbEntity
  8
DETAIL
  6
CONTINUOUS
 62
     5
100
AcDbLine
 10
293.0000000000012
 20
773.0000000000001
 30
0.0
 11
293.0000000000012
 21
753.9999999999995
 31
0.0
  0
LINE
  5
140
330
1E
100
AcDbEntity
  8
DETAIL
  6
CONTINUOUS
 62
     5
100
AcDbLine
 10
312.0000000000006
 20
773.0000000000001
 30
0.0
 11
293.0000000000012
 21
773.0000000000001
 31
0.0
  0
LINE
  5
141
330
1E
100
AcDbEntity
  8
DETAIL
  6
CONTINUOUS
 62
     5
100
AcDbLine
 10
-292.9999999999994
 20
-773.0000000000004
 30
0.0
 11
-311.9999999999998
 21
-773.0000000000004
 31
0.0
  0
LINE
  5
142
330
1E
100
AcDbEntity
  8
DETAIL
  6
CONTINUOUS
 62
     5
100
AcDbLine
 10
-292.9999999999994
 20
-773.0000000000004
 30
0.0
 11
-292.9999999999994
 21
-753.9999999999996
 31
0.0
  0
LINE
  5
143
330
1E
100
AcDbEntity
  8
DETAIL
  6
CONTINUOUS
 62
     5
100
AcDbLine
 10
-294.9999999999993
 20
-753.9999999999996
 30
0.0
 11
-292.9999999999994
 21
-753.9999999999996
 31
0.0
  0
ARC
  5
144
330
1E
100
AcDbEntity
  8
DETAIL
  6
CONTINUOUS
 62
     5
100
AcDbCircle
 10
-294.9999999999993
 20
-746.9999999999997
 30
0.0
 40
7.0
100
AcDbArc
 50
90.00000000000005
 51
270.0
  0
LINE
  5
145
330
1E
100
AcDbEntity
  8
DETAIL
  6
CONTINUOUS
 62
     5
100
AcDbLine
 10
-280.9999999999993
 20
-773.0000000000004
 30
0.0
 11
-280.9999999999993
 21
-753.9999999999996
 31
0.0
  0
LINE
  5
146
330
1E
100
AcDbEntity
  8
DETAIL
  6
CONTINUOUS
 62
     5
100
AcDbLine
 10
-280.9999999999993
 20
-753.9999999999996
 30
0.0
 11
-278.9999999999993
 21
-753.9999999999996
 31
0.0
  0
ARC
  5
147
330
1E
100
AcDbEntity
  8
DETAIL
  6
CONTINUOUS
 62
     5
100
AcDbCircle
 10
-278.9999999999993
 20
-746.9999999999997
 30
0.0
 40
7.0
100
AcDbArc
 50
270.0
 51
90.00000000000005
  0
LINE
  5
148
330
1E
100
AcDbEntity
  8
DETAIL
  6
CONTINUOUS
 62
     5
100
AcDbLine
 10
-261.9999999999998
 20
-773.0000000000004
 30
0.0
 11
-280.9999999999993
 21
-773.0000000000004
 31
0.0
  0
LINE
  5
149
330
1E
100
AcDbEntity
  8
DETAIL
  6
CONTINUOUS
 62
     5
100
AcDbLine
 10
-294.9999999999993
 20
-739.9999999999996
 30
0.0
 11
-278.9999999999993
 21
-739.9999999999996
 31
0.0
  0
LINE
  5
14A
330
1E
100
AcDbEntity
  8
DETAIL
  6
CONTINUOUS
 62
     5
100
AcDbLine
 10
281.0000000000012
 20
-772.9999999999996
 30
0.0
 11
262.0000000000006
 21
-772.9999999999996
 31
0.0
  0
LINE
  5
14B
330
1E
100
AcDbEntity
  8
DETAIL
  6
CONTINUOUS
 62
     5
100
AcDbLine
 10
312.0000000000006
 20
-772.9999999999996
 30
0.0
 11
293.0000000000012
 21
-772.9999999999996
 31
0.0
  0
LINE
  5
14C
330
1E
100
AcDbEntity
  8
DETAIL
  6
CONTINUOUS
 62
     5
100
AcDbLine
 10
281.0000000000012
 20
-772.9999999999996
 30
0.0
 11
281.0000000000012
 21
-753.9999999999992
 31
0.0
  0
LINE
  5
14D
330
1E
100
AcDbEntity
  8
DETAIL
  6
CONTINUOUS
 62
     5
100
AcDbLine
 10
293.0000000000012
 20
-772.9999999999996
 30
0.0
 11
293.0000000000012
 21
-753.9999999999992
 31
0.0
  0
ARC
  5
14E
330
1E
100
AcDbEntity
  8
DETAIL
  6
CONTINUOUS
 62
     5
100
AcDbCircle
 10
279.0000000000012
 20
-746.9999999999989
 30
0.0
 40
7.0
100
AcDbArc
 50
90.00000000000005
 51
270.0
  0
LINE
  5
14F
330
1E
100
AcDbEntity
  8
DETAIL
  6
CONTINUOUS
 62
     5
100
AcDbLine
 10
279.0000000000012
 20
-753.9999999999992
 30
0.0
 11
281.0000000000012
 21
-753.9999999999992
 31
0.0
  0
ARC
  5
150
330
1E
100
AcDbEntity
  8
DETAIL
  6
CONTINUOUS
 62
     5
100
AcDbCircle
 10
295.0000000000012
 20
-746.9999999999989
 30
0.0
 40
7.0
100
AcDbArc
 50
270.0
 51
90.00000000000005
  0
LINE
  5
151
330
1E
100
AcDbEntity
  8
DETAIL
  6
CONTINUOUS
 62
     5
100
AcDbLine
 10
293.0000000000012
 20
-753.9999999999992
 30
0.0
 11
295.0000000000012
 21
-753.9999999999992
 31
0.0
  0
LINE
  5
152
330
1E
100
AcDbEntity
  8
DETAIL
  6
CONTINUOUS
 62
     5
100
AcDbLine
 10
279.0000000000012
 20
-739.9999999999992
 30
0.0
 11
295.0000000000012
 21
-739.9999999999992
 31
0.0
  0
LINE
  5
153
330
1E
100
AcDbEntity
  8
NOTE
  6
CONTINUOUS
 62
     4
100
AcDbLine
 10
151.0
 20
-795.9999999999985
 30
0.0
 11
191.0
 21
-795.9999999999985
 31
0.0
  0
LINE
  5
154
330
1E
100
AcDbEntity
  8
NOTE
  6
CONTINUOUS
 62
     4
100
AcDbLine
 10
171.0
 20
-815.9999999999985
 30
0.0
 11
171.0
 21
-775.9999999999985
 31
0.0
  0
LINE
  5
155
330
1E
100
AcDbEntity
  8
NOTE
  6
CONTINUOUS
 62
     4
100
AcDbLine
 10
-199.9999999999998
 20
-722.9999999999985
 30
0.0
 11
-159.9999999999998
 21
-722.9999999999985
 31
0.0
  0
LINE
  5
156
330
1E
100
AcDbEntity
  8
NOTE
  6
CONTINUOUS
 62
     4
100
AcDbLine
 10
-179.9999999999998
 20
-742.9999999999985
 30
0.0
 11
-179.9999999999998
 21
-702.9999999999985
 31
0.0
  0
LINE
  5
157
330
1E
100
AcDbEntity
  8
NOTE
  6
CONTINUOUS
 62
     4
100
AcDbLine
 10
-209.9999999999998
 20
-752.9999999999985
 30
0.0
 11
-169.9999999999998
 21
-752.9999999999985
 31
0.0
  0
LINE
  5
158
330
1E
100
AcDbEntity
  8
NOTE
  6
CONTINUOUS
 62
     4
100
AcDbLine
 10
-189.9999999999998
 20
-772.9999999999985
 30
0.0
 11
-189.9999999999998
 21
-732.9999999999984
 31
0.0
  0
LINE
  5
159
330
1E
100
AcDbEntity
  8
NOTE
  6
CONTINUOUS
 62
     4
100
AcDbLine
 10
101.0
 20
-809.9999999999987
 30
0.0
 11
101.0
 21
-769.9999999999985
 31
0.0
  0
LINE
  5
15A
330
1E
100
AcDbEntity
  8
NOTE
  6
CONTINUOUS
 62
     4
100
AcDbLine
 10
81.00000000000004
 20
-789.9999999999985
 30
0.0
 11
121.0
 21
-789.9999999999985
 31
0.0
  0
LINE
  5
15B
330
1E
100
AcDbEntity
  8
DETAIL
  6
CONTINUOUS
 62
     5
100
AcDbLine
 10
-177.4999999999998
 20
-752.9999999999985
 30
0.0
 11
-177.4999999999998
 21
-722.9999999999987
 31
0.0
  0
LINE
  5
15C
330
1E
100
AcDbEntity
  8
DETAIL
  6
CONTINUOUS
 62
     5
100
AcDbLine
 10
-202.4999999999999
 20
-752.9999999999985
 30
0.0
 11
-202.4999999999999
 21
-722.9999999999987
 31
0.0
  0
LINE
  5
15D
330
1E
100
AcDbEntity
  8
DETAIL
  6
CONTINUOUS
 62
     5
100
AcDbLine
 10
-202.4999999999999
 20
-752.9999999999985
 30
0.0
 11
-177.4999999999998
 21
-752.9999999999985
 31
0.0
  0
LINE
  5
15E
330
1E
100
AcDbEntity
  8
NOTE
  6
CONTINUOUS
 62
     4
100
AcDbLine
 10
-189.9999999999991
 20
-752.9999999999964
 30
0.0
 11
-648.1692181886764
 21
-1317.20869893285
 31
0.0
  0
LWPOLYLINE
  5
15F
330
1E
100
AcDbEntity
  8
NOTE
  6
CONTINUOUS
 62
     4
100
AcDbPolyline
 90
        3
 70
     0
 43
0.0
 10
-206.1096507501426
 20
-789.6125543399055
 10
-189.999999999999
 20
-752.9999999999969
 10
-222.2576437152866
 20
-776.6525766241174
  0
LINE
  5
164
330
1E
100
AcDbEntity
  8
DETAIL
  6
CONTINUOUS
 62
     5
100
AcDbLine
 10
163.06
 20
-795.9999999999985
 30
0.0
 11
163.06
 21
-722.9999999999987
 31
0.0
  0
LINE
  5
165
330
1E
100
AcDbEntity
  8
DETAIL
  6
CONTINUOUS
 62
     5
100
AcDbLine
 10
178.94
 20
-795.9999999999985
 30
0.0
 11
178.94
 21
-722.9999999999987
 31
0.0
  0
LINE
  5
166
330
1E
100
AcDbEntity
  8
DETAIL
  6
CONTINUOUS
 62
     5
100
AcDbLine
 10
105.76
 20
-789.9999999999985
 30
0.0
 11
105.76
 21
-722.9999999999987
 31
0.0
  0
LINE
  5
167
330
1E
100
AcDbEntity
  8
DETAIL
  6
CONTINUOUS
 62
     5
100
AcDbLine
 10
96.24000000000005
 20
-789.9999999999985
 30
0.0
 11
96.24000000000005
 21
-722.9999999999987
 31
0.0
  0
LINE
  5
168
330
1E
100
AcDbEntity
  8
DETAIL
  6
CONTINUOUS
 62
     5
100
AcDbLine
 10
96.24000000000005
 20
-789.9999999999983
 30
0.0
 11
105.76
 21
-789.9999999999985
 31
0.0
  0
LINE
  5
169
330
1E
100
AcDbEntity
  8
DETAIL
  6
CONTINUOUS
 62
     5
100
AcDbLine
 10
163.06
 20
-795.9999999999985
 30
0.0
 11
178.94
 21
-795.9999999999985
 31
0.0
  0
LINE
  5
16A
330
1E
100
AcDbEntity
  8
NOTE
  6
CONTINUOUS
 62
     4
100
AcDbLine
 10
679.4201655534716
 20
1124.5193060284
 30
0.0
 11
1345.680360553471
 21
1124.5193060284
 31
0.0
  0
TEXT
  5
16B
330
1E
100
AcDbEntity
  8
NOTE
  6
CONTINUOUS
 62
     4
100
AcDbText
 10
753.0257045478149
 20
1151.420061873579
 30
0.0
 40
64.0
  1
AH 4-14X30
 41
0.9
100
AcDbText
  0
LINE
  5
16C
330
1E
100
AcDbEntity
  8
NOTE
  6
CONTINUOUS
 62
     4
100
AcDbLine
 10
-29.99999999999994
 20
-836.9999999999985
 30
0.0
 11
10.00000000000005
 21
-836.9999999999985
 31
0.0
  0
LINE
  5
16D
330
1E
100
AcDbEntity
  8
NOTE
  6
CONTINUOUS
 62
     4
100
AcDbLine
 10
-9.999999999999943
 20
-856.9999999999986
 30
0.0
 11
-9.999999999999943
 21
-816.9999999999985
 31
0.0
  0
LINE
  5
16E
330
1E
100
AcDbEntity
  8
NOTE
  6
CONTINUOUS
 62
     4
100
AcDbLine
 10
-87.99999999999995
 20
-836.9999999999985
 30
0.0
 11
-47.99999999999993
 21
-836.9999999999985
 31
0.0
  0
LINE
  5
16F
330
1E
100
AcDbEntity
  8
NOTE
  6
CONTINUOUS
 62
     4
100
AcDbLine
 10
-67.99999999999993
 20
-856.9999999999986
 30
0.0
 11
-67.99999999999993
 21
-816.9999999999985
 31
0.0
  0
LINE
  5
170
330
1E
100
AcDbEntity
  8
DETAIL
  6
CONTINUOUS
 62
     5
100
AcDbLine
 10
30.00000000000005
 20
-836.9999999999986
 30
0.0
 11
-107.9999999999998
 21
-836.9999999999986
 31
0.0
  0
LINE
  5
171
330
1E
100
AcDbEntity
  8
DETAIL
  6
CONTINUOUS
 62
     5
100
AcDbLine
 10
-107.9999999999998
 20
-836.9999999999986
 30
0.0
 11
-107.9999999999998
 21
-722.9999999999985
 31
0.0
  0
LINE
  5
172
330
1E
100
AcDbEntity
  8
SIZE
  6
CONTINUOUS
 62
    30
100
AcDbLine
 10
317.0
 20
-862.9999999999997
 30
0.0
 11
317.0
 21
-1495.208
 31
0.0
  0
LINE
  5
173
330
1E
100
AcDbEntity
  8
SIZE
  6
CONTINUOUS
 62
    30
100
AcDbLine
 10
-189.9999999999998
 20
-792.9999999999985
 30
0.0
 11
-190.0
 21
-1495.208
 31
0.0
  0
LINE
  5
174
330
1E
100
AcDbEntity
  8
SIZE
  6
CONTINUOUS
 62
    30
100
AcDbLine
 10
307.0
 20
-1465.208
 30
0.0
 11
-179.9999999999998
 21
-1465.208
 31
0.0
  0
CIRCLE
  5
175
330
1E
100
AcDbEntity
  8
SIZE
  6
CONTINUOUS
 62
    30
100
AcDbCircle
 10
317.0
 20
-1465.208
 30
0.0
 40
5.0
  0
LINE
  5
176
330
1E
100
AcDbEntity
  8
SIZE
  6
CONTINUOUS
 62
    30
100
AcDbLine
 10
312.0
 20
-1465.208
 30
0.0
 11
307.0
 21
-1465.208
 31
0.0
  0
CIRCLE
  5
177
330
1E
100
AcDbEntity
  8
SIZE
  6
CONTINUOUS
 62
    30
100
AcDbCircle
 10
-189.9999999999998
 20
-1465.208
 30
0.0
 40
5.0
  0
LINE
  5
178
330
1E
100
AcDbEntity
  8
SIZE
  6
CONTINUOUS
 62
    30
100
AcDbLine
 10
-184.9999999999998
 20
-1465.208
 30
0.0
 11
-179.9999999999998
 21
-1465.208
 31
0.0
  0
TEXT
  5
179
330
1E
100
AcDbEntity
  8
SIZE
  6
CONTINUOUS
 62
    30
100
AcDbText
 10
-10.55714285714284
 20
-1445.208
 30
0.0
 40
64.0
  1
507
 41
0.9
 72
     1
 11
63.50000000000001
 21
-1445.208
 31
0.0
100
AcDbText
  0
POINT
  5
17A
330
1E
100
AcDbEntity
  8
DEFPOINTS
  6
CONTINUOUS
 62
     7
100
AcDbPoint
 10
317.0
 20
-842.9999999999996
 30
0.0
  0
POINT
  5
17B
330
1E
100
AcDbEntity
  8
DEFPOINTS
  6
CONTINUOUS
 62
     7
100
AcDbPoint
 10
-189.9999999999998
 20
-772.9999999999985
 30
0.0
  0
POINT
  5
17C
330
1E
100
AcDbEntity
  8
DEFPOINTS
  6
CONTINUOUS
 62
     7
100
AcDbPoint
 10
-189.9999999999998
 20
-1465.208
 30
0.0
  0
LINE
  5
17D
330
1E
100
AcDbEntity
  8
SIZE
  6
CONTINUOUS
 62
    30
100
AcDbLine
 10
-179.9999999999998
 20
-762.9999999999985
 30
0.0
 11
-179.9999999999998
 21
-1352.82075
 31
0.0
  0
LINE
  5
17E
330
1E
100
AcDbEntity
  8
SIZE
  6
CONTINUOUS
 62
    30
100
AcDbLine
 10
317.0
 20
-862.9999999999997
 30
0.0
 11
317.0
 21
-1352.82075
 31
0.0
  0
LINE
  5
17F
330
1E
100
AcDbEntity
  8
SIZE
  6
CONTINUOUS
 62
    30
100
AcDbLine
 10
-169.9999999999998
 20
-1322.82075
 30
0.0
 11
307.0
 21
-1322.82075
 31
0.0
  0
CIRCLE
  5
180
330
1E
100
AcDbEntity
  8
SIZE
  6
CONTINUOUS
 62
    30
100
AcDbCircle
 10
-179.9999999999998
 20
-1322.82075
 30
0.0
 40
5.0
  0
LINE
  5
181
330
1E
100
AcDbEntity
  8
SIZE
  6
CONTINUOUS
 62
    30
100
AcDbLine
 10
-174.9999999999998
 20
-1322.82075
 30
0.0
 11
-169.9999999999998
 21
-1322.82075
 31
0.0
  0
CIRCLE
  5
182
330
1E
100
AcDbEntity
  8
SIZE
  6
CONTINUOUS
 62
    30
100
AcDbCircle
 10
317.0
 20
-1322.82075
 30
0.0
 40
5.0
  0
LINE
  5
183
330
1E
100
AcDbEntity
  8
SIZE
  6
CONTINUOUS
 62
    30
100
AcDbLine
 10
312.0
 20
-1322.82075
 30
0.0
 11
307.0
 21
-1322.82075
 31
0.0
  0
TEXT
  5
184
330
1E
100
AcDbEntity
  8
SIZE
  6
CONTINUOUS
 62
    30
100
AcDbText
 10
-5.557142857142835
 20
-1302.82075
 30
0.0
 40
64.0
  1
497
 41
0.9
 72
     1
 11
68.50000000000001
 21
-1302.82075
 31
0.0
100
AcDbText
  0
POINT
  5
185
330
1E
100
AcDbEntity
  8
DEFPOINTS
  6
CONTINUOUS
 62
     7
100
AcDbPoint
 10
-179.9999999999998
 20
-742.9999999999985
 30
0.0
  0
POINT
  5
186
330
1E
100
AcDbEntity
  8
DEFPOINTS
  6
CONTINUOUS
 62
     7
100
AcDbPoint
 10
317.0
 20
-842.9999999999996
 30
0.0
  0
POINT
  5
187
330
1E
100
AcDbEntity
  8
DEFPOINTS
  6
CONTINUOUS
 62
     7
100
AcDbPoint
 10
317.0
 20
-1322.82075
 30
0.0
  0
LINE
  5
188
330
1E
100
AcDbEntity
  8
SIZE
  6
CONTINUOUS
 62
    30
100
AcDbLine
 10
317.0
 20
-862.9999999999997
 30
0.0
 11
317.0
 21
-1199.893538
 31
0.0
  0
LINE
  5
189
330
1E
100
AcDbEntity
  8
SIZE
  6
CONTINUOUS
 62
    30
100
AcDbLine
 10
-9.999999999999943
 20
-876.9999999999987
 30
0.0
 11
-9.999999999999964
 21
-1199.893538
 31
0.0
  0
LINE
  5
18A
330
1E
100
AcDbEntity
  8
SIZE
  6
CONTINUOUS
 62
    30
100
AcDbLine
 10
307.0
 20
-1169.893537999998
 30
0.0
 11
0.0000000000000373
 21
-1169.893537999998
 31
0.0
  0
CIRCLE
  5
18B
330
1E
100
AcDbEntity
  8
SIZE
  6
CONTINUOUS
 62
    30
100
AcDbCircle
 10
317.0
 20
-1169.893537999998
 30
0.0
 40
5.0
  0
LINE
  5
18C
330
1E
100
AcDbEntity
  8
SIZE
  6
CONTINUOUS
 62
    30
100
AcDbLine
 10
312.0
 20
-1169.893537999998
 30
0.0
 11
307.0
 21
-1169.893537999998
 31
0.0
  0
CIRCLE
  5
18D
330
1E
100
AcDbEntity
  8
SIZE
  6
CONTINUOUS
 62
    30
100
AcDbCircle
 10
-9.99999999999996
 20
-1169.893537999998
 30
0.0
 40
5.0
  0
LINE
  5
18E
330
1E
100
AcDbEntity
  8
SIZE
  6
CONTINUOUS
 62
    30
100
AcDbLine
 10
-4.999999999999962
 20
-1169.893537999998
 30
0.0
 11
0.0000000000000373
 21
-1169.893537999998
 31
0.0
  0
TEXT
  5
18F
330
1E
100
AcDbEntity
  8
SIZE
  6
CONTINUOUS
 62
    30
100
AcDbText
 10
79.44285714285715
 20
-1149.893538
 30
0.0
 40
64.0
  1
327
 41
0.9
 72
     1
 11
153.5
 21
-1149.893538
 31
0.0
100
AcDbText
  0
POINT
  5
190
330
1E
100
AcDbEntity
  8
DEFPOINTS
  6
CONTINUOUS
 62
     7
100
AcDbPoint
 10
317.0
 20
-842.9999999999996
 30
0.0
  0
POINT
  5
191
330
1E
100
AcDbEntity
  8
DEFPOINTS
  6
CONTINUOUS
 62
     7
100
AcDbPoint
 10
-9.999999999999943
 20
-856.9999999999986
 30
0.0
  0
POINT
  5
192
330
1E
100
AcDbEntity
  8
DEFPOINTS
  6
CONTINUOUS
 62
     7
100
AcDbPoint
 10
-9.99999999999996
 20
-1169.893537999998
 30
0.0
  0
LINE
  5
193
330
1E
100
AcDbEntity
  8
SIZE
  6
CONTINUOUS
 62
    30
100
AcDbLine
 10
-9.999999999999943
 20
-876.9999999999987
 30
0.0
 11
-9.999999999999964
 21
-1199.893538
 31
0.0
  0
LINE
  5
194
330
1E
100
AcDbEntity
  8
SIZE
  6
CONTINUOUS
 62
    30
100
AcDbLine
 10
-67.99999999999993
 20
-876.9999999999987
 30
0.0
 11
-67.99999999999996
 21
-1199.893538
 31
0.0
  0
LINE
  5
195
330
1E
100
AcDbEntity
  8
SIZE
  6
CONTINUOUS
 62
    30
100
AcDbLine
 10
0.0000000000000373
 20
-1169.893537999998
 30
0.0
 11
10.00000000000003
 21
-1169.893537999998
 31
0.0
  0
LINE
  5
196
330
1E
100
AcDbEntity
  8
SIZE
  6
CONTINUOUS
 62
    30
100
AcDbLine
 10
-77.99999999999996
 20
-1169.893537999998
 30
0.0
 11
-87.99999999999995
 21
-1169.893537999998
 31
0.0
  0
LINE
  5
197
330
1E
100
AcDbEntity
  8
SIZE
  6
CONTINUOUS
 62
    30
100
AcDbLine
 10
-9.99999999999996
 20
-1169.893537999998
 30
0.0
 11
-67.99999999999996
 21
-1169.893537999998
 31
0.0
  0
CIRCLE
  5
198
330
1E
100
AcDbEntity
  8
SIZE
  6
CONTINUOUS
 62
    30
100
AcDbCircle
 10
-9.99999999999996
 20
-1169.893537999998
 30
0.0
 40
5.0
  0
LINE
  5
199
330
1E
100
AcDbEntity
  8
SIZE
  6
CONTINUOUS
 62
    30
100
AcDbLine
 10
-4.999999999999962
 20
-1169.893537999998
 30
0.0
 11
0.0000000000000373
 21
-1169.893537999998
 31
0.0
  0
CIRCLE
  5
19A
330
1E
100
AcDbEntity
  8
SIZE
  6
CONTINUOUS
 62
    30
100
AcDbCircle
 10
-67.99999999999996
 20
-1169.893537999998
 30
0.0
 40
5.0
  0
LINE
  5
19B
330
1E
100
AcDbEntity
  8
SIZE
  6
CONTINUOUS
 62
    30
100
AcDbLine
 10
-72.99999999999996
 20
-1169.893537999998
 30
0.0
 11
-77.99999999999996
 21
-1169.893537999998
 31
0.0
  0
TEXT
  5
19C
330
1E
100
AcDbEntity
  8
SIZE
  6
CONTINUOUS
 62
    30
100
AcDbText
 10
-85.62857142857138
 20
-1149.893538
 30
0.0
 40
64.0
  1
58
 41
0.9
 72
     1
 11
-38.99999999999995
 21
-1149.893538
 31
0.0
100
AcDbText
  0
POINT
  5
19D
330
1E
100
AcDbEntity
  8
DEFPOINTS
  6
CONTINUOUS
 62
     7
100
AcDbPoint
 10
-9.999999999999943
 20
-856.9999999999986
 30
0.0
  0
POINT
  5
19E
330
1E
100
AcDbEntity
  8
DEFPOINTS
  6
CONTINUOUS
 62
     7
100
AcDbPoint
 10
-67.99999999999993
 20
-856.9999999999986
 30
0.0
  0
POINT
  5
19F
330
1E
100
AcDbEntity
  8
DEFPOINTS
  6
CONTINUOUS
 62
     7
100
AcDbPoint
 10
-67.99999999999996
 20
-1169.893537999998
 30
0.0
  0
LINE
  5
1A0
330
1E
100
AcDbEntity
  8
SIZE
  6
CONTINUOUS
 62
    30
100
AcDbLine
 10
317.0
 20
-862.9999999999997
 30
0.0
 11
317.0
 21
-1055.66906923636
 31
0.0
  0
LINE
  5
1A1
330
1E
100
AcDbEntity
  8
SIZE
  6
CONTINUOUS
 62
    30
100
AcDbLine
 10
171.0
 20
-835.9999999999985
 30
0.0
 11
171.0
 21
-1055.66906923636
 31
0.0
  0
LINE
  5
1A2
330
1E
100
AcDbEntity
  8
SIZE
  6
CONTINUOUS
 62
    30
100
AcDbLine
 10
327.0
 20
-1025.66906923636
 30
0.0
 11
337.0
 21
-1025.66906923636
 31
0.0
  0
LINE
  5
1A3
330
1E
100
AcDbEntity
  8
SIZE
  6
CONTINUOUS
 62
    30
100
AcDbLine
 10
161.0
 20
-1025.66906923636
 30
0.0
 11
151.0
 21
-1025.66906923636
 31
0.0
  0
LINE
  5
1A4
330
1E
100
AcDbEntity
  8
SIZE
  6
CONTINUOUS
 62
    30
100
AcDbLine
 10
317.0
 20
-1025.66906923636
 30
0.0
 11
171.0
 21
-1025.66906923636
 31
0.0
  0
CIRCLE
  5
1A5
330
1E
100
AcDbEntity
  8
SIZE
  6
CONTINUOUS
 62
    30
100
AcDbCircle
 10
317.0
 20
-1025.66906923636
 30
0.0
 40
5.0
  0
LINE
  5
1A6
330
1E
100
AcDbEntity
  8
SIZE
  6
CONTINUOUS
 62
    30
100
AcDbLine
 10
322.0
 20
-1025.66906923636
 30
0.0
 11
327.0
 21
-1025.66906923636
 31
0.0
  0
CIRCLE
  5
1A7
330
1E
100
AcDbEntity
  8
SIZE
  6
CONTINUOUS
 62
    30
100
AcDbCircle
 10
171.0
 20
-1025.66906923636
 30
0.0
 40
5.0
  0
LINE
  5
1A8
330
1E
100
AcDbEntity
  8
SIZE
  6
CONTINUOUS
 62
    30
100
AcDbLine
 10
166.0
 20
-1025.66906923636
 30
0.0
 11
161.0
 21
-1025.66906923636
 31
0.0
  0
TEXT
  5
1A9
330
1E
100
AcDbEntity
  8
SIZE
  6
CONTINUOUS
 62
    30
100
AcDbText
 10
176.8
 20
-1005.66906923636
 30
0.0
 40
64.0
  1
146
 41
0.9
 72
     1
 11
244.0
 21
-1005.66906923636
 31
0.0
100
AcDbText
  0
POINT
  5
1AA
330
1E
100
AcDbEntity
  8
DEFPOINTS
  6
CONTINUOUS
 62
     7
100
AcDbPoint
 10
317.0
 20
-842.9999999999996
 30
0.0
  0
POINT
  5
1AB
330
1E
100
AcDbEntity
  8
DEFPOINTS
  6
CONTINUOUS
 62
     7
100
AcDbPoint
 10
171.0
 20
-815.9999999999985
 30
0.0
  0
POINT
  5
1AC
330
1E
100
AcDbEntity
  8
DEFPOINTS
  6
CONTINUOUS
 62
     7
100
AcDbPoint
 10
171.0
 20
-1025.66906923636
 30
0.0
  0
LINE
  5
1AD
330
1E
100
AcDbEntity
  8
SIZE
  6
CONTINUOUS
 62
    30
100
AcDbLine
 10
171.0
 20
-835.9999999999985
 30
0.0
 11
171.0
 21
-1055.66906923636
 31
0.0
  0
LINE
  5
1AE
330
1E
100
AcDbEntity
  8
SIZE
  6
CONTINUOUS
 62
    30
100
AcDbLine
 10
101.0
 20
-829.9999999999984
 30
0.0
 11
101.0
 21
-1055.66906923636
 31
0.0
  0
LINE
  5
1AF
330
1E
100
AcDbEntity
  8
SIZE
  6
CONTINUOUS
 62
    30
100
AcDbLine
 10
181.0
 20
-1025.66906923636
 30
0.0
 11
191.0
 21
-1025.66906923636
 31
0.0
  0
LINE
  5
1B0
330
1E
100
AcDbEntity
  8
SIZE
  6
CONTINUOUS
 62
    30
100
AcDbLine
 10
91.00000000000004
 20
-1025.66906923636
 30
0.0
 11
81.00000000000003
 21
-1025.66906923636
 31
0.0
  0
LINE
  5
1B1
330
1E
100
AcDbEntity
  8
SIZE
  6
CONTINUOUS
 62
    30
100
AcDbLine
 10
171.0
 20
-1025.66906923636
 30
0.0
 11
101.0
 21
-1025.66906923636
 31
0.0
  0
CIRCLE
  5
1B2
330
1E
100
AcDbEntity
  8
SIZE
  6
CONTINUOUS
 62
    30
100
AcDbCircle
 10
171.0
 20
-1025.66906923636
 30
0.0
 40
5.0
  0
LINE
  5
1B3
330
1E
100
AcDbEntity
  8
SIZE
  6
CONTINUOUS
 62
    30
100
AcDbLine
 10
176.0
 20
-1025.66906923636
 30
0.0
 11
181.0
 21
-1025.66906923636
 31
0.0
  0
CIRCLE
  5
1B4
330
1E
100
AcDbEntity
  8
SIZE
  6
CONTINUOUS
 62
    30
100
AcDbCircle
 10
101.0
 20
-1025.66906923636
 30
0.0
 40
5.0
  0
LINE
  5
1B5
330
1E
100
AcDbEntity
  8
SIZE
  6
CONTINUOUS
 62
    30
100
AcDbLine
 10
96.0
 20
-1025.66906923636
 30
0.0
 11
91.0
 21
-1025.66906923636
 31
0.0
  0
TEXT
  5
1B6
330
1E
100
AcDbEntity
  8
SIZE
  6
CONTINUOUS
 62
    30
100
AcDbText
 10
89.37142857142857
 20
-1005.66906923636
 30
0.0
 40
64.0
  1
70
 41
0.9
 72
     1
 11
136.0
 21
-1005.66906923636
 31
0.0
100
AcDbText
  0
POINT
  5
1B7
330
1E
100
AcDbEntity
  8
DEFPOINTS
  6
CONTINUOUS
 62
     7
100
AcDbPoint
 10
171.0
 20
-815.9999999999985
 30
0.0
  0
POINT
  5
1B8
330
1E
100
AcDbEntity
  8
DEFPOINTS
  6
CONTINUOUS
 62
     7
100
AcDbPoint
 10
101.0
 20
-809.9999999999987
 30
0.0
  0
POINT
  5
1B9
330
1E
100
AcDbEntity
  8
DEFPOINTS
  6
CONTINUOUS
 62
     7
100
AcDbPoint
 10
101.0
 20
-1025.66906923636
 30
0.0
  0
LINE
  5
1BA
330
1E
100
AcDbEntity
  8
SIZE
  6
CONTINUOUS
 62
    30
100
AcDbLine
 10
281.0000000000012
 20
793.0000000000001
 30
0.0
 11
281.0000000000012
 21
949.6942614820712
 31
0.0
  0
LINE
  5
1BB
330
1E
100
AcDbEntity
  8
SIZE
  6
CONTINUOUS
 62
    30
100
AcDbLine
 10
293.0000000000012
 20
793.0000000000001
 30
0.0
 11
293.0000000000012
 21
949.6942614820712
 31
0.0
  0
LINE
  5
1BC
330
1E
100
AcDbEntity
  8
SIZE
  6
CONTINUOUS
 62
    30
100
AcDbLine
 10
303.0000000000011
 20
919.6942614820711
 30
0.0
 11
313.0000000000011
 21
919.6942614820711
 31
0.0
  0
LINE
  5
1BD
330
1E
100
AcDbEntity
  8
SIZE
  6
CONTINUOUS
 62
    30
100
AcDbLine
 10
271.0000000000011
 20
919.6942614820711
 30
0.0
 11
138.7142857142869
 21
919.6942614820711
 31
0.0
  0
LINE
  5
1BE
330
1E
100
AcDbEntity
  8
SIZE
  6
CONTINUOUS
 62
    30
100
AcDbLine
 10
293.0000000000012
 20
919.6942614820711
 30
0.0
 11
281.0000000000012
 21
919.6942614820711
 31
0.0
  0
CIRCLE
  5
1BF
330
1E
100
AcDbEntity
  8
SIZE
  6
CONTINUOUS
 62
    30
100
AcDbCircle
 10
293.0000000000012
 20
919.6942614820711
 30
0.0
 40
5.0
  0
LINE
  5
1C0
330
1E
100
AcDbEntity
  8
SIZE
  6
CONTINUOUS
 62
    30
100
AcDbLine
 10
298.0000000000011
 20
919.6942614820711
 30
0.0
 11
303.0000000000011
 21
919.6942614820711
 31
0.0
  0
CIRCLE
  5
1C1
330
1E
100
AcDbEntity
  8
SIZE
  6
CONTINUOUS
 62
    30
100
AcDbCircle
 10
281.0000000000012
 20
919.6942614820711
 30
0.0
 40
5.0
  0
LINE
  5
1C2
330
1E
100
AcDbEntity
  8
SIZE
  6
CONTINUOUS
 62
    30
100
AcDbLine
 10
276.0000000000011
 20
919.6942614820711
 30
0.0
 11
271.0000000000011
 21
919.6942614820711
 31
0.0
  0
TEXT
  5
1C3
330
1E
100
AcDbEntity
  8
SIZE
  6
CONTINUOUS
 62
    30
100
AcDbText
 10
158.7142857142869
 20
939.694261482071
 30
0.0
 40
64.0
  1
12
 41
0.9
 72
     1
 11
199.857142857144
 21
939.694261482071
 31
0.0
100
AcDbText
  0
POINT
  5
1C4
330
1E
100
AcDbEntity
  8
DEFPOINTS
  6
CONTINUOUS
 62
     7
100
AcDbPoint
 10
281.0000000000012
 20
773.0000000000001
 30
0.0
  0
POINT
  5
1C5
330
1E
100
AcDbEntity
  8
DEFPOINTS
  6
CONTINUOUS
 62
     7
100
AcDbPoint
 10
293.0000000000012
 20
773.0000000000001
 30
0.0
  0
POINT
  5
1C6
330
1E
100
AcDbEntity
  8
DEFPOINTS
  6
CONTINUOUS
 62
     7
100
AcDbPoint
 10
293.0000000000012
 20
919.6942614820711
 30
0.0
  0
LINE
  5
1C7
330
1E
100
AcDbEntity
  8
SIZE
  6
CONTINUOUS
 62
    30
100
AcDbLine
 10
272.0000000000012
 20
727.000000000001
 30
0.0
 11
272.0000000000012
 21
560.5732163493322
 31
0.0
  0
LINE
  5
1C8
330
1E
100
AcDbEntity
  8
SIZE
  6
CONTINUOUS
 62
    30
100
AcDbLine
 10
302.0000000000012
 20
726.9999999999989
 30
0.0
 11
302.0000000000012
 21
560.5732163493322
 31
0.0
  0
LINE
  5
1C9
330
1E
100
AcDbEntity
  8
SIZE
  6
CONTINUOUS
 62
    30
100
AcDbLine
 10
262.0000000000012
 20
590.5732163493324
 30
0.0
 11
252.0000000000012
 21
590.5732163493324
 31
0.0
  0
LINE
  5
1CA
330
1E
100
AcDbEntity
  8
SIZE
  6
CONTINUOUS
 62
    30
100
AcDbLine
 10
312.0000000000012
 20
590.5732163493324
 30
0.0
 11
500.1928988058607
 21
590.5732163493324
 31
0.0
  0
LINE
  5
1CB
330
1E
100
AcDbEntity
  8
SIZE
  6
CONTINUOUS
 62
    30
100
AcDbLine
 10
272.0000000000012
 20
590.5732163493324
 30
0.0
 11
302.0000000000012
 21
590.5732163493324
 31
0.0
  0
CIRCLE
  5
1CC
330
1E
100
AcDbEntity
  8
SIZE
  6
CONTINUOUS
 62
    30
100
AcDbCircle
 10
272.0000000000012
 20
590.5732163493324
 30
0.0
 40
5.0
  0
LINE
  5
1CD
330
1E
100
AcDbEntity
  8
SIZE
  6
CONTINUOUS
 62
    30
100
AcDbLine
 10
267.0000000000011
 20
590.5732163493324
 30
0.0
 11
262.0000000000012
 21
590.5732163493324
 31
0.0
  0
CIRCLE
  5
1CE
330
1E
100
AcDbEntity
  8
SIZE
  6
CONTINUOUS
 62
    30
100
AcDbCircle
 10
302.0000000000012
 20
590.5732163493324
 30
0.0
 40
5.0
  0
LINE
  5
1CF
330
1E
100
AcDbEntity
  8
SIZE
  6
CONTINUOUS
 62
    30
100
AcDbLine
 10
307.0000000000011
 20
590.5732163493324
 30
0.0
 11
312.0000000000012
 21
590.5732163493324
 31
0.0
  0
TEXT
  5
1D0
330
1E
100
AcDbEntity
  8
SIZE
  6
CONTINUOUS
 62
    30
100
AcDbText
 10
386.9357559487179
 20
610.5732163493322
 30
0.0
 40
64.0
  1
30
 41
0.9
 72
     1
 11
433.5643273772894
 21
610.5732163493322
 31
0.0
100
AcDbText
  0
POINT
  5
1D1
330
1E
100
AcDbEntity
  8
DEFPOINTS
  6
CONTINUOUS
 62
     7
100
AcDbPoint
 10
272.0000000000012
 20
747.000000000001
 30
0.0
  0
POINT
  5
1D2
330
1E
100
AcDbEntity
  8
DEFPOINTS
  6
CONTINUOUS
 62
     7
100
AcDbPoint
 10
302.0000000000012
 20
746.9999999999989
 30
0.0
  0
POINT
  5
1D3
330
1E
100
AcDbEntity
  8
DEFPOINTS
  6
CONTINUOUS
 62
     7
100
AcDbPoint
 10
302.0000000000012
 20
590.5732163493324
 30
0.0
  0
LINE
  5
1D4
330
1E
100
AcDbEntity
  8
SIZE
  6
CONTINUOUS
 62
    30
100
AcDbLine
 10
315.0000000000011
 20
753.9999999999995
 30
0.0
 11
644.3673777938292
 21
753.9999999999995
 31
0.0
  0
LINE
  5
1D5
330
1E
100
AcDbEntity
  8
SIZE
  6
CONTINUOUS
 62
    30
100
AcDbLine
 10
315.0000000000011
 20
739.9999999999995
 30
0.0
 11
644.3673777938292
 21
739.9999999999995
 31
0.0
  0
LINE
  5
1D6
330
1E
100
AcDbEntity
  8
SIZE
  6
CONTINUOUS
 62
    30
100
AcDbLine
 10
614.3673777938293
 20
763.9999999999995
 30
0.0
 11
614.3673777938295
 21
773.9999999999995
 31
0.0
  0
LINE
  5
1D7
330
1E
100
AcDbEntity
  8
SIZE
  6
CONTINUOUS
 62
    30
100
AcDbLine
 10
614.3673777938293
 20
729.9999999999995
 30
0.0
 11
614.3673777938293
 21
529.6883452648633
 31
0.0
  0
LINE
  5
1D8
330
1E
100
AcDbEntity
  8
SIZE
  6
CONTINUOUS
 62
    30
100
AcDbLine
 10
614.3673777938293
 20
753.9999999999995
 30
0.0
 11
614.3673777938293
 21
739.9999999999995
 31
0.0
  0
CIRCLE
  5
1D9
330
1E
100
AcDbEntity
  8
SIZE
  6
CONTINUOUS
 62
    30
100
AcDbCircle
 10
614.3673777938293
 20
753.9999999999995
 30
0.0
 40
5.0
  0
LINE
  5
1DA
330
1E
100
AcDbEntity
  8
SIZE
  6
CONTINUOUS
 62
    30
100
AcDbLine
 10
614.3673777938293
 20
758.9999999999995
 30
0.0
 11
614.3673777938293
 21
763.9999999999995
 31
0.0
  0
CIRCLE
  5
1DB
330
1E
100
AcDbEntity
  8
SIZE
  6
CONTINUOUS
 62
    30
100
AcDbCircle
 10
614.3673777938293
 20
739.9999999999995
 30
0.0
 40
5.0
  0
LINE
  5
1DC
330
1E
100
AcDbEntity
  8
SIZE
  6
CONTINUOUS
 62
    30
100
AcDbLine
 10
614.3673777938293
 20
734.9999999999995
 30
0.0
 11
614.3673777938293
 21
729.9999999999995
 31
0.0
  0
TEXT
  5
1DD
330
1E
100
AcDbEntity
  8
SIZE
  6
CONTINUOUS
 62
    30
100
AcDbText
 10
594.3673777938292
 20
549.6883452648635
 30
0.0
 40
64.0
  1
14
 50
90.0
 41
0.9
 72
     1
 11
594.3673777938292
 21
592.2026309791492
 31
0.0
100
AcDbText
  0
POINT
  5
1DE
330
1E
100
AcDbEntity
  8
DEFPOINTS
  6
CONTINUOUS
 62
     7
100
AcDbPoint
 10
295.0000000000012
 20
753.9999999999995
 30
0.0
  0
POINT
  5
1DF
330
1E
100
AcDbEntity
  8
DEFPOINTS
  6
CONTINUOUS
 62
     7
100
AcDbPoint
 10
295.0000000000012
 20
739.9999999999995
 30
0.0
  0
POINT
  5
1E0
330
1E
100
AcDbEntity
  8
DEFPOINTS
  6
CONTINUOUS
 62
     7
100
AcDbPoint
 10
614.3673777938293
 20
739.9999999999995
 30
0.0
  0
TEXT
  5
1E1
330
1E
100
AcDbEntity
  8
NOTE
  6
CONTINUOUS
 62
     4
100
AcDbText
 10
-317.0000107657329
 20
470.933385793428
 30
0.0
 40
64.0
  1
Ceiling opening
 41
0.9
100
AcDbText
  0
LINE
  5
1E2
330
1E
100
AcDbEntity
  8
SIZE
  6
CONTINUOUS
 62
    30
100
AcDbLine
 10
337.0
 20
-722.9999999999985
 30
0.0
 11
647.0487812071967
 21
-722.9999999999985
 31
0.0
  0
LINE
  5
1E3
330
1E
100
AcDbEntity
  8
SIZE
  6
CONTINUOUS
 62
    30
100
AcDbLine
 10
211.0
 20
-795.9999999999985
 30
0.0
 11
647.0487812071967
 21
-795.9999999999987
 31
0.0
  0
LINE
  5
1E4
330
1E
100
AcDbEntity
  8
SIZE
  6
CONTINUOUS
 62
    30
100
AcDbLine
 10
617.0487812071967
 20
-785.9999999999987
 30
0.0
 11
617.0487812071967
 21
-732.9999999999984
 31
0.0
  0
LINE
  5
1E5
330
1E
100
AcDbEntity
  8
SIZE
  6
CONTINUOUS
 62
    30
100
AcDbLine
 10
617.0487812071967
 20
-722.9999999999985
 30
0.0
 11
617.0487812071967
 21
-579.7428571428556
 31
0.0
  0
CIRCLE
  5
1E6
330
1E
100
AcDbEntity
  8
SIZE
  6
CONTINUOUS
 62
    30
100
AcDbCircle
 10
617.0487812071967
 20
-795.9999999999987
 30
0.0
 40
5.0
  0
LINE
  5
1E7
330
1E
100
AcDbEntity
  8
SIZE
  6
CONTINUOUS
 62
    30
100
AcDbLine
 10
617.0487812071967
 20
-790.9999999999987
 30
0.0
 11
617.0487812071967
 21
-785.9999999999987
 31
0.0
  0
CIRCLE
  5
1E8
330
1E
100
AcDbEntity
  8
SIZE
  6
CONTINUOUS
 62
    30
100
AcDbCircle
 10
617.0487812071967
 20
-722.9999999999985
 30
0.0
 40
5.0
  0
LINE
  5
1E9
330
1E
100
AcDbEntity
  8
SIZE
  6
CONTINUOUS
 62
    30
100
AcDbLine
 10
617.0487812071967
 20
-727.9999999999985
 30
0.0
 11
617.0487812071967
 21
-732.9999999999984
 31
0.0
  0
TEXT
  5
1EA
330
1E
100
AcDbEntity
  8
SIZE
  6
CONTINUOUS
 62
    30
100
AcDbText
 10
597.048781207197
 20
-692.9999999999984
 30
0.0
 40
64.0
  1
73
 50
90.0
 41
0.9
 72
     1
 11
597.048781207197
 21
-646.371428571427
 31
0.0
100
AcDbText
  0
POINT
  5
1EB
330
1E
100
AcDbEntity
  8
DEFPOINTS
  6
CONTINUOUS
 62
     7
100
AcDbPoint
 10
317.0
 20
-722.9999999999985
 30
0.0
  0
POINT
  5
1EC
330
1E
100
AcDbEntity
  8
DEFPOINTS
  6
CONTINUOUS
 62
     7
100
AcDbPoint
 10
191.0
 20
-795.9999999999985
 30
0.0
  0
POINT
  5
1ED
330
1E
100
AcDbEntity
  8
DEFPOINTS
  6
CONTINUOUS
 62
     7
100
AcDbPoint
 10
617.0487812071967
 20
-795.9999999999987
 30
0.0
  0
LINE
  5
1EE
330
1E
100
AcDbEntity
  8
SIZE
  6
CONTINUOUS
 62
    30
100
AcDbLine
 10
337.0
 20
-722.9999999999985
 30
0.0
 11
522.8106386124507
 21
-722.9999999999985
 31
0.0
  0
LINE
  5
1EF
330
1E
100
AcDbEntity
  8
SIZE
  6
CONTINUOUS
 62
    30
100
AcDbLine
 10
141.0
 20
-789.9999999999985
 30
0.0
 11
522.8106386124506
 21
-789.9999999999987
 31
0.0
  0
LINE
  5
1F0
330
1E
100
AcDbEntity
  8
SIZE
  6
CONTINUOUS
 62
    30
100
AcDbLine
 10
492.8106386124508
 20
-779.9999999999987
 30
0.0
 11
492.8106386124508
 21
-732.9999999999984
 31
0.0
  0
LINE
  5
1F1
330
1E
100
AcDbEntity
  8
SIZE
  6
CONTINUOUS
 62
    30
100
AcDbLine
 10
492.8106386124508
 20
-722.9999999999985
 30
0.0
 11
492.8106386124508
 21
-579.7428571428556
 31
0.0
  0
CIRCLE
  5
1F2
330
1E
100
AcDbEntity
  8
SIZE
  6
CONTINUOUS
 62
    30
100
AcDbCircle
 10
492.8106386124508
 20
-789.9999999999987
 30
0.0
 40
5.0
  0
LINE
  5
1F3
330
1E
100
AcDbEntity
  8
SIZE
  6
CONTINUOUS
 62
    30
100
AcDbLine
 10
492.8106386124508
 20
-784.9999999999988
 30
0.0
 11
492.8106386124508
 21
-779.9999999999987
 31
0.0
  0
CIRCLE
  5
1F4
330
1E
100
AcDbEntity
  8
SIZE
  6
CONTINUOUS
 62
    30
100
AcDbCircle
 10
492.8106386124508
 20
-722.9999999999985
 30
0.0
 40
5.0
  0
LINE
  5
1F5
330
1E
100
AcDbEntity
  8
SIZE
  6
CONTINUOUS
 62
    30
100
AcDbLine
 10
492.8106386124508
 20
-727.9999999999985
 30
0.0
 11
492.8106386124508
 21
-732.9999999999984
 31
0.0
  0
TEXT
  5
1F6
330
1E
100
AcDbEntity
  8
SIZE
  6
CONTINUOUS
 62
    30
100
AcDbText
 10
472.8106386124509
 20
-692.9999999999984
 30
0.0
 40
64.0
  1
67
 50
90.0
 41
0.9
 72
     1
 11
472.8106386124509
 21
-646.371428571427
 31
0.0
100
AcDbText
  0
POINT
  5
1F7
330
1E
100
AcDbEntity
  8
DEFPOINTS
  6
CONTINUOUS
 62
     7
100
AcDbPoint
 10
317.0
 20
-722.9999999999985
 30
0.0
  0
POINT
  5
1F8
330
1E
100
AcDbEntity
  8
DEFPOINTS
  6
CONTINUOUS
 62
     7
100
AcDbPoint
 10
121.0
 20
-789.9999999999985
 30
0.0
  0
POINT
  5
1F9
330
1E
100
AcDbEntity
  8
DEFPOINTS
  6
CONTINUOUS
 62
     7
100
AcDbPoint
 10
492.8106386124508
 20
-789.9999999999987
 30
0.0
  0
LINE
  5
1FA
330
1E
100
AcDbEntity
  8
SIZE
  6
CONTINUOUS
 62
    30
100
AcDbLine
 10
-229.9999999999998
 20
-752.9999999999985
 30
0.0
 11
-603.9800429999997
 21
-752.9999999999985
 31
0.0
  0
LINE
  5
1FB
330
1E
100
AcDbEntity
  8
SIZE
  6
CONTINUOUS
 62
    30
100
AcDbLine
 10
-336.9999999999998
 20
-722.9999999999987
 30
0.0
 11
-603.9800429999997
 21
-722.9999999999987
 31
0.0
  0
LINE
  5
1FC
330
1E
100
AcDbEntity
  8
SIZE
  6
CONTINUOUS
 62
    30
100
AcDbLine
 10
-573.9800429999998
 20
-762.9999999999985
 30
0.0
 11
-573.980043
 21
-772.9999999999985
 31
0.0
  0
LINE
  5
1FD
330
1E
100
AcDbEntity
  8
SIZE
  6
CONTINUOUS
 62
    30
100
AcDbLine
 10
-573.9800429999998
 20
-712.9999999999987
 30
0.0
 11
-573.9800429999998
 21
-569.7428571428559
 31
0.0
  0
LINE
  5
1FE
330
1E
100
AcDbEntity
  8
SIZE
  6
CONTINUOUS
 62
    30
100
AcDbLine
 10
-573.9800429999998
 20
-752.9999999999985
 30
0.0
 11
-573.9800429999998
 21
-722.9999999999987
 31
0.0
  0
CIRCLE
  5
1FF
330
1E
100
AcDbEntity
  8
SIZE
  6
CONTINUOUS
 62
    30
100
AcDbCircle
 10
-573.9800429999998
 20
-752.9999999999985
 30
0.0
 40
5.0
  0
LINE
  5
200
330
1E
100
AcDbEntity
  8
SIZE
  6
CONTINUOUS
 62
    30
100
AcDbLine
 10
-573.9800429999998
 20
-757.9999999999984
 30
0.0
 11
-573.9800429999998
 21
-762.9999999999985
 31
0.0
  0
CIRCLE
  5
201
330
1E
100
AcDbEntity
  8
SIZE
  6
CONTINUOUS
 62
    30
100
AcDbCircle
 10
-573.9800429999998
 20
-722.9999999999987
 30
0.0
 40
5.0
  0
LINE
  5
202
330
1E
100
AcDbEntity
  8
SIZE
  6
CONTINUOUS
 62
    30
100
AcDbLine
 10
-573.9800429999998
 20
-717.9999999999987
 30
0.0
 11
-573.9800429999998
 21
-712.9999999999987
 31
0.0
  0
TEXT
  5
203
330
1E
100
AcDbEntity
  8
SIZE
  6
CONTINUOUS
 62
    30
100
AcDbText
 10
-593.9800429999998
 20
-682.9999999999988
 30
0.0
 40
64.0
  1
30
 50
90.0
 41
0.9
 72
     1
 11
-593.9800429999998
 21
-636.3714285714275
 31
0.0
100
AcDbText
  0
POINT
  5
204
330
1E
100
AcDbEntity
  8
DEFPOINTS
  6
CONTINUOUS
 62
     7
100
AcDbPoint
 10
-209.9999999999998
 20
-752.9999999999985
 30
0.0
  0
POINT
  5
205
330
1E
100
AcDbEntity
  8
DEFPOINTS
  6
CONTINUOUS
 62
     7
100
AcDbPoint
 10
-316.9999999999999
 20
-722.9999999999987
 30
0.0
  0
POINT
  5
206
330
1E
100
AcDbEntity
  8
DEFPOINTS
  6
CONTINUOUS
 62
     7
100
AcDbPoint
 10
-573.9800429999998
 20
-722.9999999999987
 30
0.0
  0
LINE
  5
207
330
1E
100
AcDbEntity
  8
NOTE
  6
CONTINUOUS
 62
     4
100
AcDbLine
 10
-316.9999999999999
 20
-521.9999999999989
 30
0.0
 11
-316.9999999999999
 21
-481.9999999999987
 31
0.0
  0
LINE
  5
208
330
1E
100
AcDbEntity
  8
NOTE
  6
CONTINUOUS
 62
     4
100
AcDbLine
 10
-337.0
 20
-501.9999999999988
 30
0.0
 11
-296.9999999999998
 21
-501.9999999999988
 31
0.0
  0
LINE
  5
209
330
1E
100
AcDbEntity
  8
NOTE
  6
CONTINUOUS
 62
     4
100
AcDbLine
 10
297.0
 20
-501.9999999999988
 30
0.0
 11
337.0
 21
-501.9999999999988
 31
0.0
  0
LINE
  5
20A
330
1E
100
AcDbEntity
  8
NOTE
  6
CONTINUOUS
 62
     4
100
AcDbLine
 10
317.0
 20
-521.9999999999989
 30
0.0
 11
317.0
 21
-481.9999999999987
 31
0.0
  0
LINE
  5
20B
330
1E
100
AcDbEntity
  8
SIZE
  6
CONTINUOUS
 62
    30
100
AcDbLine
 10
-336.9999999999998
 20
-722.9999999999987
 30
0.0
 11
-723.7402657674084
 21
-722.9999999999987
 31
0.0
  0
LINE
  5
20C
330
1E
100
AcDbEntity
  8
SIZE
  6
CONTINUOUS
 62
    30
100
AcDbLine
 10
-356.9999999999998
 20
-501.9999999999988
 30
0.0
 11
-723.7402657674084
 21
-501.9999999999988
 31
0.0
  0
LINE
  5
20D
330
1E
100
AcDbEntity
  8
SIZE
  6
CONTINUOUS
 62
    30
100
AcDbLine
 10
-693.7402657674084
 20
-712.9999999999987
 30
0.0
 11
-693.7402657674084
 21
-511.9999999999986
 31
0.0
  0
CIRCLE
  5
20E
330
1E
100
AcDbEntity
  8
SIZE
  6
CONTINUOUS
 62
    30
100
AcDbCircle
 10
-693.7402657674084
 20
-722.9999999999987
 30
0.0
 40
5.0
  0
LINE
  5
20F
330
1E
100
AcDbEntity
  8
SIZE
  6
CONTINUOUS
 62
    30
100
AcDbLine
 10
-693.7402657674084
 20
-717.9999999999987
 30
0.0
 11
-693.7402657674084
 21
-712.9999999999987
 31
0.0
  0
CIRCLE
  5
210
330
1E
100
AcDbEntity
  8
SIZE
  6
CONTINUOUS
 62
    30
100
AcDbCircle
 10
-693.7402657674084
 20
-501.9999999999988
 30
0.0
 40
5.0
  0
LINE
  5
211
330
1E
100
AcDbEntity
  8
SIZE
  6
CONTINUOUS
 62
    30
100
AcDbLine
 10
-693.7402657674084
 20
-506.9999999999987
 30
0.0
 11
-693.7402657674084
 21
-511.9999999999988
 31
0.0
  0
TEXT
  5
212
330
1E
100
AcDbEntity
  8
SIZE
  6
CONTINUOUS
 62
    30
100
AcDbText
 10
-713.7402657674084
 20
-679.336251510821
 30
0.0
 40
64.0
  1
221
 50
90.0
 41
0.9
 72
     1
 11
-713.7402657674084
 21
-617.6219657965353
 31
0.0
100
AcDbText
  0
POINT
  5
213
330
1E
100
AcDbEntity
  8
DEFPOINTS
  6
CONTINUOUS
 62
     7
100
AcDbPoint
 10
-316.9999999999999
 20
-722.9999999999987
 30
0.0
  0
POINT
  5
214
330
1E
100
AcDbEntity
  8
DEFPOINTS
  6
CONTINUOUS
 62
     7
100
AcDbPoint
 10
-336.9999999999998
 20
-501.9999999999988
 30
0.0
  0
POINT
  5
215
330
1E
100
AcDbEntity
  8
DEFPOINTS
  6
CONTINUOUS
 62
     7
100
AcDbPoint
 10
-693.7402657674084
 20
-501.9999999999988
 30
0.0
  0
LWPOLYLINE
  5
216
330
1E
100
AcDbEntity
  8
NOTE
  6
CONTINUOUS
 62
     4
100
AcDbPolyline
 90
        3
 70
     0
 43
0.0
 10
345.5020128056253
 20
-530.0648409132715
 10
316.9999999999987
 20
-501.9999999999964
 10
327.6510458417807
 20
-540.5558709273678
  0
LINE
  5
21B
330
1E
100
AcDbEntity
  8
NOTE
  6
CONTINUOUS
 62
     4
100
AcDbLine
 10
316.999999999999
 20
-501.9999999999968
 30
0.0
 11
675.5596052555247
 21
-1108.464723285761
 31
0.0
  0
LINE
  5
21C
330
1E
100
AcDbEntity
  8
NOTE
  6
CONTINUOUS
 62
     4
100
AcDbLine
 10
675.5596052555247
 20
-1108.464723285761
 30
0.0
 11
1121.819800255523
 21
-1108.464723285761
 31
0.0
  0
TEXT
  5
21D
330
1E
100
AcDbEntity
  8
NOTE
  6
CONTINUOUS
 62
     4
100
AcDbText
 10
719.2217969309224
 20
-1088.029358538092
 30
0.0
 40
64.0
  1
10-%%c2.9
 41
0.9
100
AcDbText
  0
LINE
  5
21E
330
1E
100
AcDbEntity
  8
SIZE
  6
CONTINUOUS
 62
    30
100
AcDbLine
 10
337.0
 20
-722.9999999999985
 30
0.0
 11
884.1529553338931
 21
-722.9999999999987
 31
0.0
  0
LINE
  5
21F
330
1E
100
AcDbEntity
  8
SIZE
  6
CONTINUOUS
 62
    30
100
AcDbLine
 10
357.0
 20
-501.9999999999988
 30
0.0
 11
884.1529553338931
 21
-501.9999999999988
 31
0.0
  0
LINE
  5
220
330
1E
100
AcDbEntity
  8
SIZE
  6
CONTINUOUS
 62
    30
100
AcDbLine
 10
854.1529553338929
 20
-712.9999999999987
 30
0.0
 11
854.1529553338929
 21
-511.9999999999989
 31
0.0
  0
CIRCLE
  5
221
330
1E
100
AcDbEntity
  8
SIZE
  6
CONTINUOUS
 62
    30
100
AcDbCircle
 10
854.1529553338929
 20
-722.9999999999987
 30
0.0
 40
5.0
  0
LINE
  5
222
330
1E
100
AcDbEntity
  8
SIZE
  6
CONTINUOUS
 62
    30
100
AcDbLine
 10
854.1529553338929
 20
-717.9999999999987
 30
0.0
 11
854.1529553338929
 21
-712.9999999999987
 31
0.0
  0
CIRCLE
  5
223
330
1E
100
AcDbEntity
  8
SIZE
  6
CONTINUOUS
 62
    30
100
AcDbCircle
 10
854.1529553338929
 20
-501.9999999999988
 30
0.0
 40
5.0
  0
LINE
  5
224
330
1E
100
AcDbEntity
  8
SIZE
  6
CONTINUOUS
 62
    30
100
AcDbLine
 10
854.1529553338929
 20
-506.9999999999989
 30
0.0
 11
854.1529553338929
 21
-511.9999999999989
 31
0.0
  0
TEXT
  5
225
330
1E
100
AcDbEntity
  8
SIZE
  6
CONTINUOUS
 62
    30
100
AcDbText
 10
834.1529553338931
 20
-677.4913862879704
 30
0.0
 40
64.0
  1
221
 50
90.0
 41
0.9
 72
     1
 11
834.1529553338931
 21
-615.7771005736847
 31
0.0
100
AcDbText
  0
POINT
  5
226
330
1E
100
AcDbEntity
  8
DEFPOINTS
  6
CONTINUOUS
 62
     7
100
AcDbPoint
 10
317.0
 20
-722.9999999999985
 30
0.0
  0
POINT
  5
227
330
1E
100
AcDbEntity
  8
DEFPOINTS
  6
CONTINUOUS
 62
     7
100
AcDbPoint
 10
337.0
 20
-501.9999999999988
 30
0.0
  0
POINT
  5
228
330
1E
100
AcDbEntity
  8
DEFPOINTS
  6
CONTINUOUS
 62
     7
100
AcDbPoint
 10
854.1529553338929
 20
-501.9999999999988
 30
0.0
  0
LINE
  5
229
330
1E
100
AcDbEntity
  8
NOTE
  6
CONTINUOUS
 62
     4
100
AcDbLine
 10
-316.9999999999991
 20
-502.0000000000004
 30
0.0
 11
-960.608327015351
 21
-834.7371745113775
 31
0.0
  0
LWPOLYLINE
  5
22A
330
1E
100
AcDbEntity
  8
NOTE
  6
CONTINUOUS
 62
     4
100
AcDbPolyline
 90
        3
 70
     0
 43
0.0
 10
-356.0535929662961
 20
-510.6496766345522
 10
-316.9999999999987
 20
-502.0000000000004
 10
-346.4965642299317
 20
-529.0176360757434
  0
TEXT
  5
22F
330
1E
100
AcDbEntity
  8
NOTE
  6
CONTINUOUS
 62
     4
100
AcDbText
 10
-1323.206330339953
 20
-814.301809763709
 30
0.0
 40
64.0
  1
10-%%c2.9
 41
0.9
100
AcDbText
  0
LINE
  5
230
330
1E
100
AcDbEntity
  8
NOTE
  6
CONTINUOUS
 62
     4
100
AcDbLine
 10
-1366.868522015351
 20
-834.7371745113775
 30
0.0
 11
-960.6083270153513
 21
-834.7371745113775
 31
0.0
  0
LINE
  5
231
330
1E
100
AcDbEntity
  8
SIZE
  6
CONTINUOUS
 62
    30
100
AcDbLine
 10
327.0
 20
747.000000000001
 30
0.0
 11
1279.882061852944
 21
747.0000000000005
 31
0.0
  0
LINE
  5
232
330
1E
100
AcDbEntity
  8
SIZE
  6
CONTINUOUS
 62
    30
100
AcDbLine
 10
327.0
 20
-746.9999999999985
 30
0.0
 11
1279.882061852944
 21
-746.9999999999987
 31
0.0
  0
LINE
  5
233
330
1E
100
AcDbEntity
  8
SIZE
  6
CONTINUOUS
 62
    30
100
AcDbLine
 10
1249.882061852944
 20
737.0000000000008
 30
0.0
 11
1249.882061852944
 21
-736.9999999999987
 31
0.0
  0
CIRCLE
  5
234
330
1E
100
AcDbEntity
  8
SIZE
  6
CONTINUOUS
 62
    30
100
AcDbCircle
 10
1249.882061852944
 20
747.0000000000005
 30
0.0
 40
5.0
  0
LINE
  5
235
330
1E
100
AcDbEntity
  8
SIZE
  6
CONTINUOUS
 62
    30
100
AcDbLine
 10
1249.882061852944
 20
742.0000000000006
 30
0.0
 11
1249.882061852944
 21
737.0000000000005
 31
0.0
  0
CIRCLE
  5
236
330
1E
100
AcDbEntity
  8
SIZE
  6
CONTINUOUS
 62
    30
100
AcDbCircle
 10
1249.882061852944
 20
-746.9999999999987
 30
0.0
 40
5.0
  0
LINE
  5
237
330
1E
100
AcDbEntity
  8
SIZE
  6
CONTINUOUS
 62
    30
100
AcDbLine
 10
1249.882061852944
 20
-741.9999999999987
 30
0.0
 11
1249.882061852944
 21
-736.9999999999987
 31
0.0
  0
TEXT
  5
238
330
1E
100
AcDbEntity
  8
SIZE
  6
CONTINUOUS
 62
    30
100
AcDbText
 10
1229.882061852944
 20
-97.37142857142744
 30
0.0
 40
64.0
  1
1494
 50
90.0
 41
0.9
 72
     1
 11
1229.882061852944
 21
0.0000000000011215
 31
0.0
100
AcDbText
  0
POINT
  5
239
330
1E
100
AcDbEntity
  8
DEFPOINTS
  6
CONTINUOUS
 62
     7
100
AcDbPoint
 10
307.0
 20
747.000000000001
 30
0.0
  0
POINT
  5
23A
330
1E
100
AcDbEntity
  8
DEFPOINTS
  6
CONTINUOUS
 62
     7
100
AcDbPoint
 10
307.0
 20
-746.9999999999985
 30
0.0
  0
POINT
  5
23B
330
1E
100
AcDbEntity
  8
DEFPOINTS
  6
CONTINUOUS
 62
     7
100
AcDbPoint
 10
1249.882061852944
 20
-746.9999999999987
 30
0.0
  0
LINE
  5
23C
330
1E
100
AcDbEntity
  8
SIZE
  6
CONTINUOUS
 62
    30
100
AcDbLine
 10
359.0
 20
875.0000000000001
 30
0.0
 11
1161.009694905444
 21
875.0
 31
0.0
  0
LINE
  5
23D
330
1E
100
AcDbEntity
  8
SIZE
  6
CONTINUOUS
 62
    30
100
AcDbLine
 10
359.0
 20
-874.9999999999996
 30
0.0
 11
1161.009694905444
 21
-874.9999999999996
 31
0.0
  0
LINE
  5
23E
330
1E
100
AcDbEntity
  8
SIZE
  6
CONTINUOUS
 62
    30
100
AcDbLine
 10
1131.009694905444
 20
865.0
 30
0.0
 11
1131.009694905442
 21
-864.9999999999996
 31
0.0
  0
CIRCLE
  5
23F
330
1E
100
AcDbEntity
  8
SIZE
  6
CONTINUOUS
 62
    30
100
AcDbCircle
 10
1131.009694905444
 20
875.0
 30
0.0
 40
5.0
  0
LINE
  5
240
330
1E
100
AcDbEntity
  8
SIZE
  6
CONTINUOUS
 62
    30
100
AcDbLine
 10
1131.009694905444
 20
870.0
 30
0.0
 11
1131.009694905444
 21
865.0
 31
0.0
  0
CIRCLE
  5
241
330
1E
100
AcDbEntity
  8
SIZE
  6
CONTINUOUS
 62
    30
100
AcDbCircle
 10
1131.009694905442
 20
-874.9999999999996
 30
0.0
 40
5.0
  0
LINE
  5
242
330
1E
100
AcDbEntity
  8
SIZE
  6
CONTINUOUS
 62
    30
100
AcDbLine
 10
1131.009694905442
 20
-869.9999999999997
 30
0.0
 11
1131.009694905442
 21
-864.9999999999996
 31
0.0
  0
TEXT
  5
243
330
1E
100
AcDbEntity
  8
SIZE
  6
CONTINUOUS
 62
    30
100
AcDbText
 10
1111.009694905444
 20
-95.99999999999978
 30
0.0
 40
64.0
  1
1750
 50
90.0
 41
0.9
 72
     1
 11
1111.009694905444
 21
0.0000000000002193
 31
0.0
100
AcDbText
  0
POINT
  5
244
330
1E
100
AcDbEntity
  8
DEFPOINTS
  6
CONTINUOUS
 62
     7
100
AcDbPoint
 10
339.0
 20
875.0000000000001
 30
0.0
  0
POINT
  5
245
330
1E
100
AcDbEntity
  8
DEFPOINTS
  6
CONTINUOUS
 62
     7
100
AcDbPoint
 10
339.0
 20
-874.9999999999996
 30
0.0
  0
POINT
  5
246
330
1E
100
AcDbEntity
  8
DEFPOINTS
  6
CONTINUOUS
 62
     7
100
AcDbPoint
 10
1131.009694905442
 20
-874.9999999999996
 30
0.0
  0
LINE
  5
247
330
1E
100
AcDbEntity
  8
SIZE
  6
CONTINUOUS
 62
    30
100
AcDbLine
 10
337.0
 20
723.000000000001
 30
0.0
 11
1030.250082444913
 21
723.000000000001
 31
0.0
  0
LINE
  5
248
330
1E
100
AcDbEntity
  8
SIZE
  6
CONTINUOUS
 62
    30
100
AcDbLine
 10
337.0000000000004
 20
-722.9999999999985
 30
0.0
 11
1030.250082444913
 21
-722.9999999999987
 31
0.0
  0
LINE
  5
249
330
1E
100
AcDbEntity
  8
SIZE
  6
CONTINUOUS
 62
    30
100
AcDbLine
 10
1000.250082444914
 20
713.000000000001
 30
0.0
 11
1000.250082444914
 21
-712.9999999999987
 31
0.0
  0
CIRCLE
  5
24A
330
1E
100
AcDbEntity
  8
SIZE
  6
CONTINUOUS
 62
    30
100
AcDbCircle
 10
1000.250082444914
 20
723.000000000001
 30
0.0
 40
5.0
  0
LINE
  5
24B
330
1E
100
AcDbEntity
  8
SIZE
  6
CONTINUOUS
 62
    30
100
AcDbLine
 10
1000.250082444914
 20
718.000000000001
 30
0.0
 11
1000.250082444914
 21
713.000000000001
 31
0.0
  0
CIRCLE
  5
24C
330
1E
100
AcDbEntity
  8
SIZE
  6
CONTINUOUS
 62
    30
100
AcDbCircle
 10
1000.250082444914
 20
-722.9999999999987
 30
0.0
 40
5.0
  0
LINE
  5
24D
330
1E
100
AcDbEntity
  8
SIZE
  6
CONTINUOUS
 62
    30
100
AcDbLine
 10
1000.250082444914
 20
-717.9999999999987
 30
0.0
 11
1000.250082444914
 21
-712.9999999999987
 31
0.0
  0
TEXT
  5
24E
330
1E
100
AcDbEntity
  8
SIZE
  6
CONTINUOUS
 62
    30
100
AcDbText
 10
980.2500824449142
 20
-94.62857142857011
 30
0.0
 40
64.0
  1
1446
 50
90.0
 41
0.9
 72
     1
 11
980.2500824449142
 21
0.0000000000013074
 31
0.0
100
AcDbText
  0
POINT
  5
24F
330
1E
100
AcDbEntity
  8
DEFPOINTS
  6
CONTINUOUS
 62
     7
100
AcDbPoint
 10
317.0
 20
723.000000000001
 30
0.0
  0
POINT
  5
250
330
1E
100
AcDbEntity
  8
DEFPOINTS
  6
CONTINUOUS
 62
     7
100
AcDbPoint
 10
317.0000000000005
 20
-722.9999999999985
 30
0.0
  0
POINT
  5
251
330
1E
100
AcDbEntity
  8
DEFPOINTS
  6
CONTINUOUS
 62
     7
100
AcDbPoint
 10
1000.250082444914
 20
-722.9999999999987
 30
0.0
  0
LINE
  5
252
330
1E
100
AcDbEntity
  8
SIZE
  6
CONTINUOUS
 62
    30
100
AcDbLine
 10
-336.9999999999998
 20
-722.9999999999987
 30
0.0
 11
-491.4948162599085
 21
-722.9999999999987
 31
0.0
  0
LINE
  5
253
330
1E
100
AcDbEntity
  8
SIZE
  6
CONTINUOUS
 62
    30
100
AcDbLine
 10
-447.162637
 20
0.000000000000233
 30
0.0
 11
-491.4948162599083
 21
0.0000000000002456
 31
0.0
  0
LINE
  5
254
330
1E
100
AcDbEntity
  8
SIZE
  6
CONTINUOUS
 62
    30
100
AcDbLine
 10
-461.4948162599085
 20
-712.9999999999987
 30
0.0
 11
-461.4948162599083
 21
-9.99999999999976
 31
0.0
  0
CIRCLE
  5
255
330
1E
100
AcDbEntity
  8
SIZE
  6
CONTINUOUS
 62
    30
100
AcDbCircle
 10
-461.4948162599085
 20
-722.9999999999987
 30
0.0
 40
5.0
  0
LINE
  5
256
330
1E
100
AcDbEntity
  8
SIZE
  6
CONTINUOUS
 62
    30
100
AcDbLine
 10
-461.4948162599085
 20
-717.9999999999987
 30
0.0
 11
-461.4948162599085
 21
-712.9999999999987
 31
0.0
  0
CIRCLE
  5
257
330
1E
100
AcDbEntity
  8
SIZE
  6
CONTINUOUS
 62
    30
100
AcDbCircle
 10
-461.4948162599083
 20
0.0000000000002371
 30
0.0
 40
5.0
  0
LINE
  5
258
330
1E
100
AcDbEntity
  8
SIZE
  6
CONTINUOUS
 62
    30
100
AcDbLine
 10
-461.4948162599083
 20
-4.999999999999761
 30
0.0
 11
-461.4948162599083
 21
-9.999999999999763
 31
0.0
  0
TEXT
  5
259
330
1E
100
AcDbEntity
  8
SIZE
  6
CONTINUOUS
 62
    30
100
AcDbText
 10
-481.4948162599083
 20
-435.5571428571421
 30
0.0
 40
64.0
  1
723
 50
90.0
 41
0.9
 72
     1
 11
-481.4948162599083
 21
-361.4999999999992
 31
0.0
100
AcDbText
  0
POINT
  5
25A
330
1E
100
AcDbEntity
  8
DEFPOINTS
  6
CONTINUOUS
 62
     7
100
AcDbPoint
 10
-316.9999999999999
 20
-722.9999999999987
 30
0.0
  0
POINT
  5
25B
330
1E
100
AcDbEntity
  8
DEFPOINTS
  6
CONTINUOUS
 62
     7
100
AcDbPoint
 10
-427.1626369999999
 20
0.0000000000002274
 30
0.0
  0
POINT
  5
25C
330
1E
100
AcDbEntity
  8
DEFPOINTS
  6
CONTINUOUS
 62
     7
100
AcDbPoint
 10
-461.4948162599083
 20
0.0000000000002371
 30
0.0
  0
LINE
  5
25D
330
1E
100
AcDbEntity
  8
NOTE
  6
CONTINUOUS
 62
     4
100
AcDbLine
 10
-337.0
 20
-313.4999999999988
 30
0.0
 11
-296.9999999999998
 21
-313.4999999999988
 31
0.0
  0
LINE
  5
25E
330
1E
100
AcDbEntity
  8
NOTE
  6
CONTINUOUS
 62
     4
100
AcDbLine
 10
-316.9999999999999
 20
-333.4999999999987
 30
0.0
 11
-316.9999999999999
 21
-293.4999999999988
 31
0.0
  0
LINE
  5
25F
330
1E
100
AcDbEntity
  8
NOTE
  6
CONTINUOUS
 62
     4
100
AcDbLine
 10
297.0
 20
-313.4999999999988
 30
0.0
 11
337.0
 21
-313.4999999999988
 31
0.0
  0
LINE
  5
260
330
1E
100
AcDbEntity
  8
NOTE
  6
CONTINUOUS
 62
     4
100
AcDbLine
 10
317.0
 20
-333.4999999999987
 30
0.0
 11
317.0
 21
-293.4999999999988
 31
0.0
  0
LINE
  5
261
330
1E
100
AcDbEntity
  8
NOTE
  6
CONTINUOUS
 62
     4
100
AcDbLine
 10
-337.0
 20
-124.9999999999988
 30
0.0
 11
-296.9999999999998
 21
-124.9999999999988
 31
0.0
  0
LINE
  5
262
330
1E
100
AcDbEntity
  8
NOTE
  6
CONTINUOUS
 62
     4
100
AcDbLine
 10
-316.9999999999999
 20
-144.9999999999988
 30
0.0
 11
-316.9999999999999
 21
-104.9999999999987
 31
0.0
  0
LINE
  5
263
330
1E
100
AcDbEntity
  8
NOTE
  6
CONTINUOUS
 62
     4
100
AcDbLine
 10
317.0
 20
-144.9999999999988
 30
0.0
 11
317.0
 21
-104.9999999999987
 31
0.0
  0
LINE
  5
264
330
1E
100
AcDbEntity
  8
NOTE
  6
CONTINUOUS
 62
     4
100
AcDbLine
 10
297.0
 20
-124.9999999999988
 30
0.0
 11
337.0
 21
-124.9999999999988
 31
0.0
  0
LINE
  5
265
330
1E
100
AcDbEntity
  8
NOTE
  6
CONTINUOUS
 62
     4
100
AcDbLine
 10
-337.0
 20
63.50000000000115
 30
0.0
 11
-296.9999999999998
 21
63.50000000000115
 31
0.0
  0
LINE
  5
266
330
1E
100
AcDbEntity
  8
NOTE
  6
CONTINUOUS
 62
     4
100
AcDbLine
 10
-316.9999999999999
 20
43.50000000000114
 30
0.0
 11
-316.9999999999999
 21
83.50000000000115
 31
0.0
  0
LINE
  5
267
330
1E
100
AcDbEntity
  8
NOTE
  6
CONTINUOUS
 62
     4
100
AcDbLine
 10
297.0
 20
63.50000000000115
 30
0.0
 11
337.0
 21
63.50000000000115
 31
0.0
  0
LINE
  5
268
330
1E
100
AcDbEntity
  8
NOTE
  6
CONTINUOUS
 62
     4
100
AcDbLine
 10
317.0
 20
43.50000000000114
 30
0.0
 11
317.0
 21
83.50000000000115
 31
0.0
  0
LINE
  5
269
330
1E
100
AcDbEntity
  8
NOTE
  6
CONTINUOUS
 62
     4
100
AcDbLine
 10
-337.0
 20
252.0000000000011
 30
0.0
 11
-296.9999999999998
 21
252.0000000000011
 31
0.0
  0
LINE
  5
26A
330
1E
100
AcDbEntity
  8
NOTE
  6
CONTINUOUS
 62
     4
100
AcDbLine
 10
-316.9999999999999
 20
232.000000000001
 30
0.0
 11
-316.9999999999999
 21
272.000000000001
 31
0.0
  0
LINE
  5
26B
330
1E
100
AcDbEntity
  8
NOTE
  6
CONTINUOUS
 62
     4
100
AcDbLine
 10
317.0
 20
232.000000000001
 30
0.0
 11
317.0
 21
272.000000000001
 31
0.0
  0
LINE
  5
26C
330
1E
100
AcDbEntity
  8
NOTE
  6
CONTINUOUS
 62
     4
100
AcDbLine
 10
297.0
 20
252.0000000000011
 30
0.0
 11
337.0
 21
252.0000000000011
 31
0.0
  0
LINE
  5
26D
330
1E
100
AcDbEntity
  8
SIZE
  6
CONTINUOUS
 62
    30
100
AcDbLine
 10
-356.9999999999998
 20
-501.9999999999988
 30
0.0
 11
-603.980043
 21
-501.9999999999988
 31
0.0
  0
LINE
  5
26E
330
1E
100
AcDbEntity
  8
SIZE
  6
CONTINUOUS
 62
    30
100
AcDbLine
 10
-356.9999999999998
 20
-313.4999999999988
 30
0.0
 11
-603.980043
 21
-313.4999999999988
 31
0.0
  0
LINE
  5
26F
330
1E
100
AcDbEntity
  8
SIZE
  6
CONTINUOUS
 62
    30
100
AcDbLine
 10
-573.980043
 20
-511.9999999999988
 30
0.0
 11
-573.980043
 21
-521.9999999999987
 31
0.0
  0
LINE
  5
270
330
1E
100
AcDbEntity
  8
SIZE
  6
CONTINUOUS
 62
    30
100
AcDbLine
 10
-573.980043
 20
-303.4999999999988
 30
0.0
 11
-573.980043
 21
-293.4999999999988
 31
0.0
  0
LINE
  5
271
330
1E
100
AcDbEntity
  8
SIZE
  6
CONTINUOUS
 62
    30
100
AcDbLine
 10
-573.980043
 20
-501.9999999999988
 30
0.0
 11
-573.980043
 21
-313.4999999999988
 31
0.0
  0
CIRCLE
  5
272
330
1E
100
AcDbEntity
  8
SIZE
  6
CONTINUOUS
 62
    30
100
AcDbCircle
 10
-573.980043
 20
-501.9999999999988
 30
0.0
 40
5.0
  0
LINE
  5
273
330
1E
100
AcDbEntity
  8
SIZE
  6
CONTINUOUS
 62
    30
100
AcDbLine
 10
-573.980043
 20
-506.9999999999987
 30
0.0
 11
-573.980043
 21
-511.9999999999988
 31
0.0
  0
CIRCLE
  5
274
330
1E
100
AcDbEntity
  8
SIZE
  6
CONTINUOUS
 62
    30
100
AcDbCircle
 10
-573.980043
 20
-313.4999999999988
 30
0.0
 40
5.0
  0
LINE
  5
275
330
1E
100
AcDbEntity
  8
SIZE
  6
CONTINUOUS
 62
    30
100
AcDbLine
 10
-573.980043
 20
-308.4999999999987
 30
0.0
 11
-573.980043
 21
-303.4999999999988
 31
0.0
  0
TEXT
  5
276
330
1E
100
AcDbEntity
  8
SIZE
  6
CONTINUOUS
 62
    30
100
AcDbText
 10
-593.9800429999998
 20
-517.4642857142845
 30
0.0
 40
64.0
  1
188.5
 50
90.0
 41
0.9
 72
     1
 11
-593.9800429999998
 21
-407.7499999999989
 31
0.0
100
AcDbText
  0
POINT
  5
277
330
1E
100
AcDbEntity
  8
DEFPOINTS
  6
CONTINUOUS
 62
     7
100
AcDbPoint
 10
-336.9999999999998
 20
-501.9999999999988
 30
0.0
  0
POINT
  5
278
330
1E
100
AcDbEntity
  8
DEFPOINTS
  6
CONTINUOUS
 62
     7
100
AcDbPoint
 10
-336.9999999999998
 20
-313.4999999999988
 30
0.0
  0
POINT
  5
279
330
1E
100
AcDbEntity
  8
DEFPOINTS
  6
CONTINUOUS
 62
     7
100
AcDbPoint
 10
-573.980043
 20
-313.4999999999988
 30
0.0
  0
LINE
  5
27A
330
1E
100
AcDbEntity
  8
SIZE
  6
CONTINUOUS
 62
    30
100
AcDbLine
 10
357.0
 20
-501.9999999999988
 30
0.0
 11
743.979506972284
 21
-501.9999999999988
 31
0.0
  0
LINE
  5
27B
330
1E
100
AcDbEntity
  8
SIZE
  6
CONTINUOUS
 62
    30
100
AcDbLine
 10
357.0
 20
-313.4999999999988
 30
0.0
 11
743.979506972284
 21
-313.4999999999989
 31
0.0
  0
LINE
  5
27C
330
1E
100
AcDbEntity
  8
SIZE
  6
CONTINUOUS
 62
    30
100
AcDbLine
 10
713.9795069722841
 20
-511.9999999999988
 30
0.0
 11
713.9795069722841
 21
-521.9999999999989
 31
0.0
  0
LINE
  5
27D
330
1E
100
AcDbEntity
  8
SIZE
  6
CONTINUOUS
 62
    30
100
AcDbLine
 10
713.9795069722841
 20
-303.4999999999989
 30
0.0
 11
713.9795069722841
 21
-293.4999999999989
 31
0.0
  0
LINE
  5
27E
330
1E
100
AcDbEntity
  8
SIZE
  6
CONTINUOUS
 62
    30
100
AcDbLine
 10
713.9795069722841
 20
-501.9999999999988
 30
0.0
 11
713.9795069722841
 21
-313.4999999999989
 31
0.0
  0
CIRCLE
  5
27F
330
1E
100
AcDbEntity
  8
SIZE
  6
CONTINUOUS
 62
    30
100
AcDbCircle
 10
713.9795069722841
 20
-501.9999999999988
 30
0.0
 40
5.0
  0
LINE
  5
280
330
1E
100
AcDbEntity
  8
SIZE
  6
CONTINUOUS
 62
    30
100
AcDbLine
 10
713.9795069722841
 20
-506.9999999999988
 30
0.0
 11
713.9795069722841
 21
-511.9999999999988
 31
0.0
  0
CIRCLE
  5
281
330
1E
100
AcDbEntity
  8
SIZE
  6
CONTINUOUS
 62
    30
100
AcDbCircle
 10
713.9795069722841
 20
-313.4999999999989
 30
0.0
 40
5.0
  0
LINE
  5
282
330
1E
100
AcDbEntity
  8
SIZE
  6
CONTINUOUS
 62
    30
100
AcDbLine
 10
713.9795069722841
 20
-308.4999999999989
 30
0.0
 11
713.9795069722841
 21
-303.4999999999989
 31
0.0
  0
TEXT
  5
283
330
1E
100
AcDbEntity
  8
SIZE
  6
CONTINUOUS
 62
    30
100
AcDbText
 10
693.979506972284
 20
-517.4642857142845
 30
0.0
 40
64.0
  1
188.5
 50
90.0
 41
0.9
 72
     1
 11
693.979506972284
 21
-407.7499999999989
 31
0.0
100
AcDbText
  0
POINT
  5
284
330
1E
100
AcDbEntity
  8
DEFPOINTS
  6
CONTINUOUS
 62
     7
100
AcDbPoint
 10
337.0
 20
-501.9999999999988
 30
0.0
  0
POINT
  5
285
330
1E
100
AcDbEntity
  8
DEFPOINTS
  6
CONTINUOUS
 62
     7
100
AcDbPoint
 10
337.0
 20
-313.4999999999988
 30
0.0
  0
POINT
  5
286
330
1E
100
AcDbEntity
  8
DEFPOINTS
  6
CONTINUOUS
 62
     7
100
AcDbPoint
 10
713.9795069722841
 20
-313.4999999999989
 30
0.0
  0
LINE
  5
287
330
1E
100
AcDbEntity
  8
SIZE
  6
CONTINUOUS
 62
    30
100
AcDbLine
 10
357.0
 20
-501.9999999999988
 30
0.0
 11
884.1529553338931
 21
-501.9999999999988
 31
0.0
  0
LINE
  5
288
330
1E
100
AcDbEntity
  8
SIZE
  6
CONTINUOUS
 62
    30
100
AcDbLine
 10
357.0
 20
252.0000000000011
 30
0.0
 11
884.1529553338931
 21
252.0000000000008
 31
0.0
  0
LINE
  5
289
330
1E
100
AcDbEntity
  8
SIZE
  6
CONTINUOUS
 62
    30
100
AcDbLine
 10
854.1529553338929
 20
-491.9999999999989
 30
0.0
 11
854.152955333893
 21
242.0000000000009
 31
0.0
  0
CIRCLE
  5
28A
330
1E
100
AcDbEntity
  8
SIZE
  6
CONTINUOUS
 62
    30
100
AcDbCircle
 10
854.1529553338929
 20
-501.9999999999988
 30
0.0
 40
5.0
  0
LINE
  5
28B
330
1E
100
AcDbEntity
  8
SIZE
  6
CONTINUOUS
 62
    30
100
AcDbLine
 10
854.1529553338929
 20
-496.9999999999989
 30
0.0
 11
854.1529553338929
 21
-491.9999999999989
 31
0.0
  0
CIRCLE
  5
28C
330
1E
100
AcDbEntity
  8
SIZE
  6
CONTINUOUS
 62
    30
100
AcDbCircle
 10
854.152955333893
 20
252.0000000000008
 30
0.0
 40
5.0
  0
LINE
  5
28D
330
1E
100
AcDbEntity
  8
SIZE
  6
CONTINUOUS
 62
    30
100
AcDbLine
 10
854.152955333893
 20
247.0000000000009
 30
0.0
 11
854.152955333893
 21
242.0000000000008
 31
0.0
  0
TEXT
  5
28E
330
1E
100
AcDbEntity
  8
SIZE
  6
CONTINUOUS
 62
    30
100
AcDbText
 10
834.1529553338931
 20
-200.4285714285702
 30
0.0
 40
64.0
  1
754
 50
90.0
 41
0.9
 72
     1
 11
834.1529553338931
 21
-124.9999999999988
 31
0.0
100
AcDbText
  0
POINT
  5
28F
330
1E
100
AcDbEntity
  8
DEFPOINTS
  6
CONTINUOUS
 62
     7
100
AcDbPoint
 10
337.0
 20
-501.9999999999988
 30
0.0
  0
POINT
  5
290
330
1E
100
AcDbEntity
  8
DEFPOINTS
  6
CONTINUOUS
 62
     7
100
AcDbPoint
 10
337.0
 20
252.0000000000011
 30
0.0
  0
POINT
  5
291
330
1E
100
AcDbEntity
  8
DEFPOINTS
  6
CONTINUOUS
 62
     7
100
AcDbPoint
 10
854.152955333893
 20
252.0000000000008
 30
0.0
  0
LINE
  5
292
330
1E
100
AcDbEntity
  8
SIZE
  6
CONTINUOUS
 62
    30
100
AcDbLine
 10
-356.9999999999998
 20
-501.9999999999988
 30
0.0
 11
-723.7402657674084
 21
-501.9999999999988
 31
0.0
  0
LINE
  5
293
330
1E
100
AcDbEntity
  8
SIZE
  6
CONTINUOUS
 62
    30
100
AcDbLine
 10
-356.9999999999998
 20
252.0000000000011
 30
0.0
 11
-723.7402657674084
 21
252.0000000000012
 31
0.0
  0
LINE
  5
294
330
1E
100
AcDbEntity
  8
SIZE
  6
CONTINUOUS
 62
    30
100
AcDbLine
 10
-693.7402657674084
 20
-491.9999999999986
 30
0.0
 11
-693.7402657674084
 21
242.0000000000011
 31
0.0
  0
CIRCLE
  5
295
330
1E
100
AcDbEntity
  8
SIZE
  6
CONTINUOUS
 62
    30
100
AcDbCircle
 10
-693.7402657674084
 20
-501.9999999999988
 30
0.0
 40
5.0
  0
LINE
  5
296
330
1E
100
AcDbEntity
  8
SIZE
  6
CONTINUOUS
 62
    30
100
AcDbLine
 10
-693.7402657674084
 20
-496.9999999999988
 30
0.0
 11
-693.7402657674084
 21
-491.9999999999988
 31
0.0
  0
CIRCLE
  5
297
330
1E
100
AcDbEntity
  8
SIZE
  6
CONTINUOUS
 62
    30
100
AcDbCircle
 10
-693.7402657674084
 20
252.0000000000012
 30
0.0
 40
5.0
  0
LINE
  5
298
330
1E
100
AcDbEntity
  8
SIZE
  6
CONTINUOUS
 62
    30
100
AcDbLine
 10
-693.7402657674084
 20
247.0000000000012
 30
0.0
 11
-693.7402657674084
 21
242.0000000000011
 31
0.0
  0
TEXT
  5
299
330
1E
100
AcDbEntity
  8
SIZE
  6
CONTINUOUS
 62
    30
100
AcDbText
 10
-713.7402657674084
 20
-200.4285714285702
 30
0.0
 40
64.0
  1
754
 50
90.0
 41
0.9
 72
     1
 11
-713.7402657674084
 21
-124.9999999999988
 31
0.0
100
AcDbText
  0
POINT
  5
29A
330
1E
100
AcDbEntity
  8
DEFPOINTS
  6
CONTINUOUS
 62
     7
100
AcDbPoint
 10
-336.9999999999998
 20
-501.9999999999988
 30
0.0
  0
POINT
  5
29B
330
1E
100
AcDbEntity
  8
DEFPOINTS
  6
CONTINUOUS
 62
     7
100
AcDbPoint
 10
-336.9999999999998
 20
252.0000000000011
 30
0.0
  0
POINT
  5
29C
330
1E
100
AcDbEntity
  8
DEFPOINTS
  6
CONTINUOUS
 62
     7
100
AcDbPoint
 10
-693.7402657674084
 20
252.0000000000012
 30
0.0
  0
LINE
  5
29D
330
1E
100
AcDbEntity
  8
SIZE
  6
CONTINUOUS
 62
    30
100
AcDbLine
 10
-354.9999999999998
 20
855.0
 30
0.0
 11
-849.7089385941869
 21
855.0
 31
0.0
  0
LINE
  5
29E
330
1E
100
AcDbEntity
  8
SIZE
  6
CONTINUOUS
 62
    30
100
AcDbLine
 10
-354.9999999999997
 20
-854.9999999999997
 30
0.0
 11
-849.7089385941873
 21
-854.9999999999997
 31
0.0
  0
LINE
  5
29F
330
1E
100
AcDbEntity
  8
SIZE
  6
CONTINUOUS
 62
    30
100
AcDbLine
 10
-819.7089385941868
 20
845.0000000000001
 30
0.0
 11
-819.7089385941874
 21
-844.9999999999997
 31
0.0
  0
CIRCLE
  5
2A0
330
1E
100
AcDbEntity
  8
SIZE
  6
CONTINUOUS
 62
    30
100
AcDbCircle
 10
-819.7089385941868
 20
855.0
 30
0.0
 40
5.0
  0
LINE
  5
2A1
330
1E
100
AcDbEntity
  8
SIZE
  6
CONTINUOUS
 62
    30
100
AcDbLine
 10
-819.7089385941868
 20
850.0000000000001
 30
0.0
 11
-819.7089385941868
 21
845.0000000000001
 31
0.0
  0
CIRCLE
  5
2A2
330
1E
100
AcDbEntity
  8
SIZE
  6
CONTINUOUS
 62
    30
100
AcDbCircle
 10
-819.7089385941874
 20
-854.9999999999997
 30
0.0
 40
5.0
  0
LINE
  5
2A3
330
1E
100
AcDbEntity
  8
SIZE
  6
CONTINUOUS
 62
    30
100
AcDbLine
 10
-819.7089385941874
 20
-849.9999999999996
 30
0.0
 11
-819.7089385941874
 21
-844.9999999999997
 31
0.0
  0
TEXT
  5
2A4
330
1E
100
AcDbEntity
  8
SIZE
  6
CONTINUOUS
 62
    30
100
AcDbText
 10
-839.7089385941873
 20
-90.51428571428559
 30
0.0
 40
64.0
  1
1710
 50
90.0
 41
0.9
 72
     1
 11
-839.7089385941873
 21
0.0000000000001114
 31
0.0
100
AcDbText
  0
POINT
  5
2A5
330
1E
100
AcDbEntity
  8
DEFPOINTS
  6
CONTINUOUS
 62
     7
100
AcDbPoint
 10
-334.9999999999998
 20
855.0
 30
0.0
  0
POINT
  5
2A6
330
1E
100
AcDbEntity
  8
DEFPOINTS
  6
CONTINUOUS
 62
     7
100
AcDbPoint
 10
-334.9999999999997
 20
-854.9999999999997
 30
0.0
  0
POINT
  5
2A7
330
1E
100
AcDbEntity
  8
DEFPOINTS
  6
CONTINUOUS
 62
     7
100
AcDbPoint
 10
-819.7089385941874
 20
-854.9999999999997
 30
0.0
  0
LINE
  5
2A8
330
1E
100
AcDbEntity
  8
SERVICESPACE
  6
DASHDOT
 62
     2
100
AcDbLine
 10
-335.0
 20
855.0
 30
0.0
 11
334.9999999999998
 21
-854.9999999999997
 31
0.0
  0
LINE
  5
2A9
330
1E
100
AcDbEntity
  8
SERVICESPACE
  6
DASHDOT
 62
     2
100
AcDbLine
 10
335.0
 20
855.0
 30
0.0
 11
-334.9999999999997
 21
-854.9999999999997
 31
0.0
  0
LINE
  5
2AA
330
1E
100
AcDbEntity
  8
OUTLINE
  6
CONTINUOUS
 62
     3
100
AcDbLine
 10
355.0
 20
-858.9999999999996
 30
0.0
 11
355.0
 21
859.0000000000001
 31
0.0
  0
LINE
  5
2AB
330
1E
100
AcDbEntity
  8
OUTLINE
  6
CONTINUOUS
 62
     3
100
AcDbLine
 10
-355.0
 20
-858.9999999999996
 30
0.0
 11
-355.0
 21
859.0000000000001
 31
0.0
  0
LINE
  5
2AC
330
1E
100
AcDbEntity
  8
OUTLINE
  6
CONTINUOUS
 62
     3
100
AcDbLine
 10
339.0
 20
-874.9999999999996
 30
0.0
 11
-339.0
 21
-874.9999999999996
 31
0.0
  0
ARC
  5
2AD
330
1E
100
AcDbEntity
  8
OUTLINE
  6
CONTINUOUS
 62
     3
100
AcDbCircle
 10
-339.0
 20
-858.9999999999996
 30
0.0
 40
16.0
100
AcDbArc
 50
180.0
 51
270.0
  0
ARC
  5
2AE
330
1E
100
AcDbEntity
  8
OUTLINE
  6
CONTINUOUS
 62
     3
100
AcDbCircle
 10
339.0
 20
-858.9999999999996
 30
0.0
 40
16.0
100
AcDbArc
 50
270.0
 51
0.0
  0
LINE
  5
2AF
330
1E
100
AcDbEntity
  8
OUTLINE
  6
CONTINUOUS
 62
     3
100
AcDbLine
 10
339.0
 20
875.0000000000001
 30
0.0
 11
-339.0
 21
875.0000000000001
 31
0.0
  0
ARC
  5
2B0
330
1E
100
AcDbEntity
  8
OUTLINE
  6
CONTINUOUS
 62
     3
100
AcDbCircle
 10
-339.0
 20
859.0000000000001
 30
0.0
 40
16.0
100
AcDbArc
 50
90.0
 51
180.0
  0
ARC
  5
2B1
330
1E
100
AcDbEntity
  8
OUTLINE
  6
CONTINUOUS
 62
     3
100
AcDbCircle
 10
339.0
 20
859.0000000000001
 30
0.0
 40
16.0
100
AcDbArc
 50
0.0
 51
90.0
  0
TEXT
  5
2B2
330
1E
100
AcDbEntity
  8
NOTE
  6
CONTINUOUS
 62
     4
100
AcDbText
 10
663.7876714516322
 20
-1641.377778000508
 30
0.0
 40
64.0
  1
The other outdoor unit : %%c19.05
 41
0.9
100
AcDbText
  0
TEXT
  5
2B3
330
1E
100
AcDbEntity
  8
NOTE
  6
CONTINUOUS
 62
     4
100
AcDbText
 10
673.1483054176178
 20
-1502.826357891945
 30
0.0
 40
64.0
  1
R410A outdoor unit : %%c15.88
 41
0.9
100
AcDbText
  0
TEXT
  5
2B4
330
1E
100
AcDbEntity
  8
NOTE
  6
CONTINUOUS
 62
     4
100
AcDbText
 10
676.2091369988892
 20
-1328.084220235118
 30
0.0
 40
64.0
  1
RG %%c15.88
 41
0.9
100
AcDbText
  0
LINE
  5
2B5
330
1E
100
AcDbEntity
  8
NOTE
  6
CONTINUOUS
 62
     4
100
AcDbLine
 10
630.4887218822805
 20
-1364.848429410415
 30
0.0
 11
1249.70190888228
 21
-1364.848429410415
 31
0.0
  0
ENDSEC
  0
SECTION
  2
OBJECTS
  0
DICTIONARY
  5
C
330
0
100
AcDbDictionary
  3
ACAD_GROUP
350
D
  3
ACAD_LAYOUT
350
19
  3
ACAD_MLINESTYLE
350
16
  3
ACAD_PLOTSETTINGS
350
18
  3
ACAD_PLOTSTYLENAME
350
E
  3
ACDBHEADERROUNDTRIPXREC
350
2B8
  0
DICTIONARY
  5
2DB
330
1E
100
AcDbDictionary
280
     1
  3
ACAD_LAYOUTSELFREF
360
2DC
  0
DICTIONARY
  5
2D9
330
1A
100
AcDbDictionary
280
     1
  3
ACAD_LAYOUTSELFREF
360
2DA
  0
DICTIONARY
  5
D
102
{ACAD_REACTORS
330
C
102
}
330
C
100
AcDbDictionary
  0
DICTIONARY
  5
19
102
{ACAD_REACTORS
330
C
102
}
330
C
100
AcDbDictionary
  0
DICTIONARY
  5
16
102
{ACAD_REACTORS
330
C
102
}
330
C
100
AcDbDictionary
  3
STANDARD
350
17
  0
DICTIONARY
  5
18
102
{ACAD_REACTORS
330
C
102
}
330
C
100
AcDbDictionary
  0
ACDBDICTIONARYWDFLT
  5
E
102
{ACAD_REACTORS
330
C
102
}
330
C
100
AcDbDictionary
281
     1
  3
Normal
350
F
100
AcDbDictionaryWithDefault
340
F
  0
DICTIONARY
  5
2B8
102
{ACAD_REACTORS
330
C
102
}
330
C
100
AcDbDictionary
  3
CEPSNTYPE
350
2C2
  3
DIMSTYLEDATA
350
2C6
  3
FINGERPRINTGUID
350
2C3
  3
HYPERLINKBASE
350
2BB
  3
INSUNITS
350
2C1
  3
LAYOUTDICT
350
2BD
  3
LWETCUNION
350
2C0
  3
PLOTSETDICT
350
2BE
  3
PLOTSTYLNAMDICT
350
2BF
  3
PSVPSCALE
350
2C5
  3
PUCSBASE
350
2C9
  3
PUCSORGBACK
350
2CF
  3
PUCSORGBOTTOM
350
2CB
  3
PUCSORGFRONT
350
2CE
  3
PUCSORGLEFT
350
2CC
  3
PUCSORGRIGHT
350
2CD
  3
PUCSORGTOP
350
2CA
  3
PUCSORTHOREF
350
2C7
  3
PUCSORTHOVIEW
350
2C8
  3
STYLESHEET
350
2BC
  3
TSTACKALIGN
350
2B9
  3
TSTACKSIZE
350
2BA
  3
UCSBASE
350
2D2
  3
UCSORGBACK
350
2D8
  3
UCSORGBOTTOM
350
2D4
  3
UCSORGFRONT
350
2D7
  3
UCSORGLEFT
350
2D5
  3
UCSORGRIGHT
350
2D6
  3
UCSORGTOP
350
2D3
  3
UCSORTHOREF
350
2D0
  3
UCSORTHOVIEW
350
2D1
  3
VERSIONGUID
350
2C4
  0
XRECORD
  5
2DC
102
{ACAD_REACTORS
330
2DB
102
}
330
2DB
100
AcDbXrecord
340
1E
  0
XRECORD
  5
2DA
102
{ACAD_REACTORS
330
2D9
102
}
330
2D9
100
AcDbXrecord
340
1A
  0
MLINESTYLE
  5
17
102
{ACAD_REACTORS
330
16
102
}
330
16
100
AcDbMlineStyle
  2
STANDARD
 70
     0
  3

 62
   256
 51
90.0
 52
90.0
 71
     2
 49
0.5
 62
   256
  6
BYLAYER
 49
-0.5
 62
   256
  6
BYLAYER
  0
ACDBPLACEHOLDER
  5
F
102
{ACAD_REACTORS
330
E
102
}
330
E
100
AcDbPlaceHolder
280
     0
  0
XRECORD
  5
2C2
102
{ACAD_REACTORS
330
2B8
102
}
330
2B8
100
AcDbXrecord
 90
        0
  0
XRECORD
  5
2C6
102
{ACAD_REACTORS
330
2B8
102
}
330
2B8
100
AcDbXrecord
1000
DSTYLE
1002
{
1070
   341
340
39
1070
   342
340
39
1070
   343
340
39
1070
   344
340
34
1002
}
  0
XRECORD
  5
2C3
102
{ACAD_REACTORS
330
2B8
102
}
330
2B8
100
AcDbXrecord
  1
{17AAAC92-2D0D-4AD6-BA6A-A53D466872E2}
  0
XRECORD
  5
2BB
102
{ACAD_REACTORS
330
2B8
102
}
330
2B8
100
AcDbXrecord
  1

  0
XRECORD
  5
2C1
102
{ACAD_REACTORS
330
2B8
102
}
330
2B8
100
AcDbXrecord
 90
        0
  0
XRECORD
  5
2BD
102
{ACAD_REACTORS
330
2B8
102
}
330
2B8
100
AcDbXrecord
340
19
  0
XRECORD
  5
2C0
102
{ACAD_REACTORS
330
2B8
102
}
330
2B8
100
AcDbXrecord
 90
    10781
  0
XRECORD
  5
2BE
102
{ACAD_REACTORS
330
2B8
102
}
330
2B8
100
AcDbXrecord
340
18
  0
XRECORD
  5
2BF
102
{ACAD_REACTORS
330
2B8
102
}
330
2B8
100
AcDbXrecord
340
E
  0
XRECORD
  5
2C5
102
{ACAD_REACTORS
330
2B8
102
}
330
2B8
100
AcDbXrecord
 40
0.0
  0
XRECORD
  5
2C9
102
{ACAD_REACTORS
330
2B8
102
}
330
2B8
100
AcDbXrecord
340
0
  0
XRECORD
  5
2CF
102
{ACAD_REACTORS
330
2B8
102
}
330
2B8
100
AcDbXrecord
 10
0.0
 20
0.0
 30
0.0
  0
XRECORD
  5
2CB
102
{ACAD_REACTORS
330
2B8
102
}
330
2B8
100
AcDbXrecord
 10
0.0
 20
0.0
 30
0.0
  0
XRECORD
  5
2CE
102
{ACAD_REACTORS
330
2B8
102
}
330
2B8
100
AcDbXrecord
 10
0.0
 20
0.0
 30
0.0
  0
XRECORD
  5
2CC
102
{ACAD_REACTORS
330
2B8
102
}
330
2B8
100
AcDbXrecord
 10
0.0
 20
0.0
 30
0.0
  0
XRECORD
  5
2CD
102
{ACAD_REACTORS
330
2B8
102
}
330
2B8
100
AcDbXrecord
 10
0.0
 20
0.0
 30
0.0
  0
XRECORD
  5
2CA
102
{ACAD_REACTORS
330
2B8
102
}
330
2B8
100
AcDbXrecord
 10
0.0
 20
0.0
 30
0.0
  0
XRECORD
  5
2C7
102
{ACAD_REACTORS
330
2B8
102
}
330
2B8
100
AcDbXrecord
340
0
  0
XRECORD
  5
2C8
102
{ACAD_REACTORS
330
2B8
102
}
330
2B8
100
AcDbXrecord
 70
     0
  0
XRECORD
  5
2BC
102
{ACAD_REACTORS
330
2B8
102
}
330
2B8
100
AcDbXrecord
  1

  0
XRECORD
  5
2B9
102
{ACAD_REACTORS
330
2B8
102
}
330
2B8
100
AcDbXrecord
 90
        1
  0
XRECORD
  5
2BA
102
{ACAD_REACTORS
330
2B8
102
}
330
2B8
100
AcDbXrecord
 90
       70
  0
XRECORD
  5
2D2
102
{ACAD_REACTORS
330
2B8
102
}
330
2B8
100
AcDbXrecord
340
0
  0
XRECORD
  5
2D8
102
{ACAD_REACTORS
330
2B8
102
}
330
2B8
100
AcDbXrecord
 10
0.0
 20
0.0
 30
0.0
  0
XRECORD
  5
2D4
102
{ACAD_REACTORS
330
2B8
102
}
330
2B8
100
AcDbXrecord
 10
0.0
 20
0.0
 30
0.0
  0
XRECORD
  5
2D7
102
{ACAD_REACTORS
330
2B8
102
}
330
2B8
100
AcDbXrecord
 10
0.0
 20
0.0
 30
0.0
  0
XRECORD
  5
2D5
102
{ACAD_REACTORS
330
2B8
102
}
330
2B8
100
AcDbXrecord
 10
0.0
 20
0.0
 30
0.0
  0
XRECORD
  5
2D6
102
{ACAD_REACTORS
330
2B8
102
}
330
2B8
100
AcDbXrecord
 10
0.0
 20
0.0
 30
0.0
  0
XRECORD
  5
2D3
102
{ACAD_REACTORS
330
2B8
102
}
330
2B8
100
AcDbXrecord
 10
0.0
 20
0.0
 30
0.0
  0
XRECORD
  5
2D0
102
{ACAD_REACTORS
330
2B8
102
}
330
2B8
100
AcDbXrecord
340
0
  0
XRECORD
  5
2D1
102
{ACAD_REACTORS
330
2B8
102
}
330
2B8
100
AcDbXrecord
 70
     0
  0
XRECORD
  5
2C4
102
{ACAD_REACTORS
330
2B8
102
}
330
2B8
100
AcDbXrecord
  1
{6DCD8595-EA95-4DD8-8F45-3AD4926B615D}
  0
ENDSEC
  0
EOF
