  0
SECTION
  2
HEADER
  9
$ACADVER
  1
AC1014
  9
$ACADMAINTVER
 70
     9
  9
$DWGCODEPAGE
  3
ANSI_932
  9
$INSBASE
 10
0.0
 20
0.0
 30
0.0
  9
$EXTMIN
 10
-1333.088493946939
 20
-482.1752448383376
 30
-0.0015258207003583
  9
$EXTMAX
 10
1445.920020252273
 20
581.2612448484651
 30
0.0000000349246037
  9
$LIMMIN
 10
-3424.718897474421
 20
-241.2751718400066
  9
$LIMMAX
 10
5483.332090746102
 20
4682.367238430699
  9
$ORTHOMODE
 70
     1
  9
$REGENMODE
 70
     1
  9
$FILLMODE
 70
     1
  9
$QTEXTMODE
 70
     0
  9
$MIRRTEXT
 70
     0
  9
$DRAGMODE
 70
     2
  9
$LTSCALE
 40
20.0
  9
$OSMODE
 70
    37
  9
$ATTMODE
 70
     1
  9
$TEXTSIZE
 40
64.0
  9
$TRACEWID
 40
0.05
  9
$TEXTSTYLE
  7
STANDARD
  9
$CLAYER
  8
OUTLINE
  9
$CELTYPE
  6
CONTINUOUS
  9
$CECOLOR
 62
   256
  9
$CELTSCALE
 40
1.0
  9
$DELOBJ
 70
     1
  9
$DISPSILH
 70
     0
  9
$DIMSCALE
 40
1.0
  9
$DIMASZ
 40
10.0
  9
$DIMEXO
 40
20.0
  9
$DIMDLI
 40
200.0
  9
$DIMRND
 40
0.0
  9
$DIMDLE
 40
0.0
  9
$DIMEXE
 40
20.0
  9
$DIMTP
 40
0.0
  9
$DIMTM
 40
0.0
  9
$DIMTXT
 40
50.0
  9
$DIMCEN
 40
0.082
  9
$DIMTSZ
 40
0.0
  9
$DIMTOL
 70
     0
  9
$DIMLIM
 70
     0
  9
$DIMTIH
 70
     0
  9
$DIMTOH
 70
     0
  9
$DIMSE1
 70
     0
  9
$DIMSE2
 70
     0
  9
$DIMTAD
 70
     1
  9
$DIMZIN
 70
     8
  9
$DIMBLK
  1
ORIGIN
  9
$DIMASO
 70
     1
  9
$DIMSHO
 70
     0
  9
$DIMPOST
  1

  9
$DIMAPOST
  1

  9
$DIMALT
 70
     0
  9
$DIMALTD
 70
     2
  9
$DIMALTF
 40
25.4
  9
$DIMLFAC
 40
1.0
  9
$DIMTOFL
 70
     1
  9
$DIMTVP
 40
0.0
  9
$DIMTIX
 70
     0
  9
$DIMSOXD
 70
     0
  9
$DIMSAH
 70
     0
  9
$DIMBLK1
  1

  9
$DIMBLK2
  1

  9
$DIMSTYLE
  2
STANDARD
  9
$DIMCLRD
 70
     0
  9
$DIMCLRE
 70
     0
  9
$DIMCLRT
 70
     0
  9
$DIMTFAC
 40
1.0
  9
$DIMGAP
 40
10.0
  9
$DIMJUST
 70
     0
  9
$DIMSD1
 70
     0
  9
$DIMSD2
 70
     0
  9
$DIMTOLJ
 70
     1
  9
$DIMTZIN
 70
     0
  9
$DIMALTZ
 70
     0
  9
$DIMALTTZ
 70
     0
  9
$DIMFIT
 70
     3
  9
$DIMUPT
 70
     0
  9
$DIMUNIT
 70
     2
  9
$DIMDEC
 70
     1
  9
$DIMTDEC
 70
     1
  9
$DIMALTU
 70
     2
  9
$DIMALTTD
 70
     2
  9
$DIMTXSTY
  7
STANDARD
  9
$DIMAUNIT
 70
     0
  9
$LUNITS
 70
     2
  9
$LUPREC
 70
     4
  9
$SKETCHINC
 40
0.1
  9
$FILLETRAD
 40
5.0
  9
$AUNITS
 70
     1
  9
$AUPREC
 70
     3
  9
$MENU
  1
ACAD
  9
$ELEVATION
 40
0.0
  9
$PELEVATION
 40
0.0
  9
$THICKNESS
 40
0.0
  9
$LIMCHECK
 70
     0
  9
$BLIPMODE
 70
     0
  9
$CHAMFERA
 40
0.0
  9
$CHAMFERB
 40
0.0
  9
$CHAMFERC
 40
0.0
  9
$CHAMFERD
 40
0.0
  9
$SKPOLY
 70
     0
  9
$TDCREATE
 40
2450330.393205995
  9
$TDUPDATE
 40
2454720.402979872
  9
$TDINDWG
 40
1.0175110301
  9
$TDUSRTIMER
 40
1.0175110301
  9
$USRTIMER
 70
     1
  9
$ANGBASE
 50
0.0
  9
$ANGDIR
 70
     0
  9
$PDMODE
 70
     3
  9
$PDSIZE
 40
-2.0
  9
$PLINEWID
 40
0.0
  9
$COORDS
 70
     0
  9
$SPLFRAME
 70
     0
  9
$SPLINETYPE
 70
     6
  9
$SPLINESEGS
 70
     8
  9
$ATTDIA
 70
     0
  9
$ATTREQ
 70
     1
  9
$HANDLING
 70
-16383
  9
$HANDSEED
  5
19D14
  9
$SURFTAB1
 70
     6
  9
$SURFTAB2
 70
     6
  9
$SURFTYPE
 70
     6
  9
$SURFU
 70
     6
  9
$SURFV
 70
     6
  9
$UCSNAME
  2

  9
$UCSORG
 10
0.0
 20
0.0
 30
0.0
  9
$UCSXDIR
 10
1.0
 20
0.0
 30
0.0
  9
$UCSYDIR
 10
0.0
 20
1.0
 30
0.0
  9
$PUCSNAME
  2

  9
$PUCSORG
 10
0.0
 20
0.0
 30
0.0
  9
$PUCSXDIR
 10
1.0
 20
0.0
 30
0.0
  9
$PUCSYDIR
 10
0.0
 20
1.0
 30
0.0
  9
$USERI1
 70
     0
  9
$USERI2
 70
     0
  9
$USERI3
 70
     0
  9
$USERI4
 70
     0
  9
$USERI5
 70
     0
  9
$USERR1
 40
20.0
  9
$USERR2
 40
0.0
  9
$USERR3
 40
0.0
  9
$USERR4
 40
0.0
  9
$USERR5
 40
0.0
  9
$WORLDVIEW
 70
     1
  9
$SHADEDGE
 70
     3
  9
$SHADEDIF
 70
    70
  9
$TILEMODE
 70
     1
  9
$MAXACTVP
 70
    64
  9
$PINSBASE
 10
0.0
 20
0.0
 30
0.0
  9
$PLIMCHECK
 70
     0
  9
$PEXTMIN
 10
1.000000000000000E+20
 20
1.000000000000000E+20
 30
1.000000000000000E+20
  9
$PEXTMAX
 10
-1.000000000000000E+20
 20
-1.000000000000000E+20
 30
-1.000000000000000E+20
  9
$PLIMMIN
 10
0.0
 20
0.0
  9
$PLIMMAX
 10
12.0
 20
9.0
  9
$UNITMODE
 70
     0
  9
$VISRETAIN
 70
     1
  9
$PLINEGEN
 70
     0
  9
$PSLTSCALE
 70
     1
  9
$TREEDEPTH
 70
  3020
  9
$PICKSTYLE
 70
     1
  9
$CMLSTYLE
  2
STANDARD
  9
$CMLJUST
 70
     0
  9
$CMLSCALE
 40
1.0
  9
$PROXYGRAPHICS
 70
     1
  9
$MEASUREMENT
 70
     0
  0
ENDSEC
  0
SECTION
  2
CLASSES
  0
CLASS
  1
ACDBDICTIONARYWDFLT
  2
AcDbDictionaryWithDefault
  3
AutoCAD 2000
 90
        0
280
     0
281
     0
  0
CLASS
  1
ACDBPLACEHOLDER
  2
AcDbPlaceHolder
  3
AutoCAD 2000
 90
        0
280
     0
281
     0
  0
CLASS
  1
LAYOUT
  2
AcDbLayout
  3
AutoCAD 2000
 90
        0
280
     0
281
     0
  0
CLASS
  1
LONG_TRANSACTION
  2
AcDbLongTransaction
  3
AutoCAD 2000
 90
        0
280
     0
281
     0
  0
CLASS
  1
LWPOLYLINE
  2
AcDbPolyline
  3
AutoCAD 2000
 90
        0
280
     0
281
     1
  0
CLASS
  1
HATCH
  2
AcDbHatch
  3
AutoCAD 2000
 90
        0
280
     0
281
     1
  0
CLASS
  1
XRECORD
  2
AcDbXrecord
  3
AutoCAD 2000
 90
        0
280
     0
281
     0
  0
CLASS
  1
LONG_TRANSACTION
  2
AcDbLongTransaction
  3
AutoCAD 2000
 90
        0
280
     0
281
     0
  0
CLASS
  1
LWPOLYLINE
  2
AcDbPolyline
  3
AutoCAD 2000
 90
        0
280
     0
281
     1
  0
CLASS
  1
HATCH
  2
AcDbHatch
  3
AutoCAD 2000
 90
        0
280
     0
281
     1
  0
CLASS
  1
XRECORD
  2
AcDbXrecord
  3
AutoCAD 2000
 90
        0
280
     0
281
     0
  0
ENDSEC
  0
SECTION
  2
TABLES
  0
TABLE
  2
VPORT
  5
8
330
0
100
AcDbSymbolTable
 70
     2
  0
VPORT
  5
19CF0
330
8
100
AcDbSymbolTableRecord
100
AcDbViewportTableRecord
  2
*ACTIVE
 70
     0
 10
0.0
 20
0.0
 11
1.0
 21
1.0
 12
56.41576315266684
 22
49.54300000506373
 13
0.0
 23
0.0
 14
50.0
 24
50.0
 15
100.0
 25
100.0
 16
0.0
 26
0.0
 36
1.0
 17
0.0
 27
0.0
 37
0.0
 40
1432.057959240624
 41
1.947815533980582
 42
50.0
 43
0.0
 44
0.0
 50
0.0
 51
0.0
 71
     0
 72
   500
 73
     1
 74
     0
 75
     0
 76
     0
 77
     0
 78
     0
  0
ENDTAB
  0
TABLE
  2
LTYPE
  5
5
330
0
100
AcDbSymbolTable
 70
    16
  0
LTYPE
  5
13
330
5
100
AcDbSymbolTableRecord
100
AcDbLinetypeTableRecord
  2
BYBLOCK
 70
     0
  3

 72
    65
 73
     0
 40
0.0
  0
LTYPE
  5
14
330
5
100
AcDbSymbolTableRecord
100
AcDbLinetypeTableRecord
  2
BYLAYER
 70
     0
  3

 72
    65
 73
     0
 40
0.0
  0
LTYPE
  5
15
330
5
100
AcDbSymbolTableRecord
100
AcDbLinetypeTableRecord
  2
CONTINUOUS
 70
     0
  3
実線
 72
    65
 73
     0
 40
0.0
  0
LTYPE
  5
23
330
5
100
AcDbSymbolTableRecord
100
AcDbLinetypeTableRecord
  2
DASHDOT
 70
     0
  3
____ _ ____ _ ____ _ ____ _ ____ _ ____ _ ____
 72
    65
 73
     4
 40
5.5
 49
4.0
 74
     0
 49
-0.6
 74
     0
 49
0.3
 74
     0
 49
-0.6
 74
     0
  0
ENDTAB
  0
TABLE
  2
LAYER
  5
2
330
0
100
AcDbSymbolTable
 70
    16
  0
LAYER
  5
10
330
2
100
AcDbSymbolTableRecord
100
AcDbLayerTableRecord
  2
0
 70
     0
 62
     7
  6
CONTINUOUS
  0
LAYER
  5
22
330
2
100
AcDbSymbolTableRecord
100
AcDbLayerTableRecord
  2
SIZE
 70
     0
 62
    30
  6
CONTINUOUS
  0
LAYER
  5
31
330
2
100
AcDbSymbolTableRecord
100
AcDbLayerTableRecord
  2
DETAIL
 70
     0
 62
     5
  6
CONTINUOUS
  0
LAYER
  5
32
330
2
100
AcDbSymbolTableRecord
100
AcDbLayerTableRecord
  2
OUTLINE
 70
     0
 62
     3
  6
CONTINUOUS
  0
LAYER
  5
33
330
2
100
AcDbSymbolTableRecord
100
AcDbLayerTableRecord
  2
BASIS
 70
     0
 62
     6
  6
DASHDOT
  0
LAYER
  5
34
330
2
100
AcDbSymbolTableRecord
100
AcDbLayerTableRecord
  2
NOTE
 70
     0
 62
     4
  6
CONTINUOUS
  0
LAYER
  5
35
330
2
100
AcDbSymbolTableRecord
100
AcDbLayerTableRecord
  2
ARRANGE
 70
     0
 62
     1
  6
CONTINUOUS
  0
LAYER
  5
37
330
2
100
AcDbSymbolTableRecord
100
AcDbLayerTableRecord
  2
ETC
 70
     0
 62
    61
  6
CONTINUOUS
  0
LAYER
  5
3A
330
2
100
AcDbSymbolTableRecord
100
AcDbLayerTableRecord
  2
DEFPOINTS
 70
     0
 62
     7
  6
CONTINUOUS
  0
LAYER
  5
19CE1
330
2
100
AcDbSymbolTableRecord
100
AcDbLayerTableRecord
  2
FIX
 70
     0
 62
    11
  6
CONTINUOUS
  0
LAYER
  5
19CE2
330
2
100
AcDbSymbolTableRecord
100
AcDbLayerTableRecord
  2
SERVICESPACE
 70
     0
 62
     2
  6
DASHDOT
  0
LAYER
  5
19CE3
330
2
100
AcDbSymbolTableRecord
100
AcDbLayerTableRecord
  2
SYMBOLLINE
 70
     0
 62
    15
  6
CONTINUOUS
  0
ENDTAB
  0
TABLE
  2
STYLE
  5
3
330
0
100
AcDbSymbolTable
 70
     2
  0
STYLE
  5
11
330
3
100
AcDbSymbolTableRecord
100
AcDbTextStyleTableRecord
  2
STANDARD
 70
     0
 40
0.0
 41
0.9
 50
0.0
 71
     0
 42
64.0
  3
SIMPLEX
  4
BIGFONT
  0
ENDTAB
  0
TABLE
  2
VIEW
  5
6
330
0
100
AcDbSymbolTable
 70
     1
  0
VIEW
  5
3C
330
6
100
AcDbSymbolTableRecord
100
AcDbViewTableRecord
  2
ALL
 70
     0
 40
4282.62
 10
0.0
 20
41.30990399999999
 41
5940.0
 11
0.0
 21
0.0
 31
1.0
 12
0.0
 22
0.0
 32
0.0
 42
50.0
 43
0.0
 44
0.0
 50
0.0
 71
     0
  0
ENDTAB
  0
TABLE
  2
UCS
  5
7
330
0
100
AcDbSymbolTable
 70
     0
  0
ENDTAB
  0
TABLE
  2
APPID
  5
9
330
0
100
AcDbSymbolTable
 70
     1
  0
APPID
  5
12
330
9
100
AcDbSymbolTableRecord
100
AcDbRegAppTableRecord
  2
ACAD
 70
     0
  0
ENDTAB
  0
TABLE
  2
DIMSTYLE
  5
A
330
0
100
AcDbSymbolTable
 70
     1
  0
DIMSTYLE
105
213
102
{ACAD_REACTORS
330
36DB
330
36DC
330
36DD
330
36DE
330
36DF
330
36E0
330
36E1
330
36E2
330
36E3
330
36E4
330
36E5
330
36E6
330
36E7
330
36E8
330
36E9
330
36EA
330
36EB
330
36EC
330
3771
330
3772
330
3773
330
3790
330
3791
330
3796
330
3797
330
379A
330
37A3
330
37A7
330
37A8
330
37B8
330
37BA
330
3842
330
384C
330
384D
330
384F
330
3856
330
3857
330
3860
330
3864
102
}
330
A
100
AcDbSymbolTableRecord
100
AcDbDimStyleTableRecord
  2
STANDARD
 70
     0
  3

  4

  5

  6

  7

 40
1.0
 41
0.18
 42
0.0625
 43
0.38
 44
0.18
 45
0.0
 46
0.0
 47
0.0
 48
0.0
140
0.18
141
0.09
142
0.0
143
25.4
144
1.0
145
0.0
146
1.0
147
0.09
 71
     0
 72
     0
 73
     1
 74
     1
 75
     0
 76
     0
 77
     0
 78
     0
170
     0
171
     2
172
     0
173
     0
174
     0
175
     0
176
     0
177
     0
178
     0
270
     2
271
     4
272
     4
273
     2
274
     2
340
11
275
     0
280
     0
281
     0
282
     0
283
     1
284
     0
285
     0
286
     0
287
     3
288
     0
  0
ENDTAB
  0
TABLE
  2
BLOCK_RECORD
  5
1
330
0
100
AcDbSymbolTable
 70
    49
  0
BLOCK_RECORD
  5
1E
102
{ACAD_XDICTIONARY
360
19CD8
102
}
330
1
100
AcDbSymbolTableRecord
100
AcDbBlockTableRecord
  2
*MODEL_SPACE
  0
BLOCK_RECORD
  5
1A
102
{ACAD_XDICTIONARY
360
19CD6
102
}
330
1
100
AcDbSymbolTableRecord
100
AcDbBlockTableRecord
  2
*PAPER_SPACE
  0
BLOCK_RECORD
  5
46
330
1
100
AcDbSymbolTableRecord
100
AcDbBlockTableRecord
  2
_ORIGIN
  0
ENDTAB
  0
ENDSEC
  0
SECTION
  2
BLOCKS
  0
BLOCK
  5
1F
330
1E
100
AcDbEntity
  8
0
100
AcDbBlockBegin
  2
*MODEL_SPACE
 70
     0
 10
0.0
 20
0.0
 30
0.0
  3
*MODEL_SPACE
  1

  0
ENDBLK
  5
20
330
1E
100
AcDbEntity
  8
0
100
AcDbBlockEnd
  0
BLOCK
  5
1B
330
1A
100
AcDbEntity
 67
     1
  8
0
100
AcDbBlockBegin
  2
*PAPER_SPACE
 70
     0
 10
0.0
 20
0.0
 30
0.0
  3
*PAPER_SPACE
  1

  0
ENDBLK
  5
1C
330
1A
100
AcDbEntity
 67
     1
  8
0
100
AcDbBlockEnd
  0
BLOCK
  5
47
330
46
100
AcDbEntity
  8
0
100
AcDbBlockBegin
  2
_ORIGIN
 70
     0
 10
0.0
 20
0.0
 30
0.0
  3
_ORIGIN
  1

  0
CIRCLE
  5
48
330
46
100
AcDbEntity
  8
0
  6
BYBLOCK
 62
     0
100
AcDbCircle
 10
0.0
 20
0.0
 30
0.0
 40
0.5
  0
LINE
  5
49
330
46
100
AcDbEntity
  8
0
  6
BYBLOCK
 62
     0
100
AcDbLine
 10
0.0
 20
0.0
 30
0.0
 11
-1.0
 21
0.0
 31
0.0
  0
ENDBLK
  5
4A
330
46
100
AcDbEntity
  8
0
100
AcDbBlockEnd
  0
ENDSEC
  0
SECTION
  2
ENTITIES
  0
LINE
  5
CE4B
330
1E
100
AcDbEntity
  8
DETAIL
  6
CONTINUOUS
100
AcDbLine
 10
344.0297887003843
 20
-215.7089030313204
 30
0.0
 11
-511.1169244008861
 21
-215.7089030313204
 31
0.0
  0
LINE
  5
CE4C
330
1E
100
AcDbEntity
  8
DETAIL
  6
CONTINUOUS
100
AcDbLine
 10
344.0248504234376
 20
-215.1871688745263
 30
0.0
 11
-511.112371295877
 21
-215.1871688745268
 31
0.0
  0
LINE
  5
CE4D
330
1E
100
AcDbEntity
  8
DETAIL
  6
CONTINUOUS
100
AcDbLine
 10
343.7555140539689
 20
-186.7314979732418
 30
0.0
 11
-510.8640424180221
 21
-186.7314979732399
 31
0.0
  0
LINE
  5
CE4E
330
1E
100
AcDbEntity
  8
DETAIL
  6
CONTINUOUS
100
AcDbLine
 10
-510.99883272237
 20
-202.1769369987995
 30
0.0
 11
343.9017070039235
 21
-202.1769369987995
 31
0.0
  0
LINE
  5
CE4F
330
1E
100
AcDbEntity
  8
DETAIL
  6
CONTINUOUS
100
AcDbLine
 10
343.8685043225496
 20
-198.6690387669181
 30
0.0
 11
-510.9682197582761
 21
-198.6690387667499
 31
0.0
  0
LINE
  5
CE50
330
1E
100
AcDbEntity
  8
DETAIL
  6
CONTINUOUS
100
AcDbLine
 10
343.6818842623442
 20
-178.9524329954178
 30
0.0
 11
-510.7961557161988
 21
-178.9524524495831
 31
0.0
  0
LINE
  5
CE51
330
1E
100
AcDbEntity
  8
DETAIL
  6
CONTINUOUS
100
AcDbLine
 10
343.6935183041813
 20
-180.1815817598635
 30
0.0
 11
-510.8068821651876
 21
-180.1815817598621
 31
0.0
  0
LINE
  5
CE5B
330
1E
100
AcDbEntity
  8
DETAIL
  6
CONTINUOUS
100
AcDbLine
 10
-505.6938000000018
 20
-251.2219879509052
 30
0.0
 11
338.860799999994
 21
-251.2219879509052
 31
0.0
  0
LINE
  5
CE5C
330
1E
100
AcDbEntity
  8
DETAIL
  6
CONTINUOUS
100
AcDbLine
 10
338.860799999994
 20
-251.5422565063894
 30
0.0
 11
-505.6938000000018
 21
-251.5422565063894
 31
0.0
  0
LINE
  5
CE5D
330
1E
100
AcDbEntity
  8
DETAIL
  6
CONTINUOUS
100
AcDbLine
 10
-505.6938000000018
 20
-235.4754571447306
 30
0.0
 11
338.860799999994
 21
-235.4754571447306
 31
0.0
  0
LINE
  5
CE5E
330
1E
100
AcDbEntity
  8
DETAIL
  6
CONTINUOUS
100
AcDbLine
 10
344.1555754564333
 20
-228.9984061941576
 30
0.0
 11
-511.2328987971642
 21
-228.9982525506338
 31
0.0
  0
ARC
  5
CE6C
330
1E
100
AcDbEntity
  8
DETAIL
  6
CONTINUOUS
100
AcDbCircle
 10
-492.0075000000005
 20
-58.53727472816536
 30
0.0
 40
11.9880000000009
100
AcDbArc
 50
270.0
 51
0.0
  0
ARC
  5
CE6D
330
1E
100
AcDbEntity
  8
DETAIL
  6
CONTINUOUS
100
AcDbCircle
 10
-492.0075000000005
 20
-58.53727472816536
 30
0.0
 40
10.98899999999999
100
AcDbArc
 50
270.0
 51
0.0
  0
LINE
  5
CE6F
330
1E
100
AcDbEntity
  8
DETAIL
  6
CONTINUOUS
100
AcDbLine
 10
-513.6851597420599
 20
-98.49727472816404
 30
0.0
 11
348.8401661864855
 21
-98.49727472816404
 31
0.0
  0
LINE
  5
CE70
330
1E
100
AcDbEntity
  8
DETAIL
  6
CONTINUOUS
100
AcDbLine
 10
-481.0185000000029
 20
-58.53727472816536
 30
0.0
 11
-480.0194999999921
 21
-58.53727472816536
 31
0.0
  0
LINE
  5
CE9C
330
1E
100
AcDbEntity
  8
DETAIL
  6
CONTINUOUS
100
AcDbLine
 10
348.241003098793
 20
-99.50090957745217
 30
0.0
 11
-513.086048443808
 21
-99.50090957743713
 31
0.0
  0
LINE
  5
CE9D
330
1E
100
AcDbEntity
  8
DETAIL
  6
CONTINUOUS
100
AcDbLine
 10
348.2410030327327
 20
-99.99605096255709
 30
0.0
 11
-513.0860483777478
 21
-99.99605096255709
 31
0.0
  0
LINE
  5
CE9F
330
1E
100
AcDbEntity
  8
DETAIL
  6
CONTINUOUS
100
AcDbLine
 10
-91.06181634405677
 20
-141.7204824526311
 30
0.0
 11
-507.515579986305
 21
-141.7204824520826
 31
0.0
  0
LINE
  5
CEA1
330
1E
100
AcDbEntity
  8
DETAIL
  6
CONTINUOUS
100
AcDbLine
 10
510.1797058696002
 20
-256.7687694100436
 30
0.0
 11
-511.4752484262835
 21
-256.7687694100436
 31
0.0
  0
SPLINE
  5
CEA4
330
1E
100
AcDbEntity
  8
DETAIL
  6
CONTINUOUS
100
AcDbSpline
210
0.0
220
0.0
230
1.0
 70
     8
 71
     3
 72
    16
 73
    12
 74
    10
 42
0.0000000001
 43
0.0000000001
 44
0.00000001
 40
0.0
 40
0.0
 40
0.0
 40
0.0
 40
25.86927116017472
 40
75.71630722402353
 40
142.6824899124558
 40
211.2714864532742
 40
285.4825168525184
 40
424.078448634888
 40
571.2779677013149
 40
854.0567610958856
 40
1142.545145147648
 40
1142.545145147648
 40
1142.545145147648
 40
1142.545145147648
 10
-570.5918905553052
 20
-285.7585365339783
 30
0.0
 10
-561.9813452162913
 20
-286.224117076901
 30
0.0
 10
-536.7792940162789
 20
-287.5868164206917
 30
0.0
 10
-489.2636762907705
 20
-289.6765920057886
 30
0.0
 10
-427.5133332965115
 20
-292.1724772256154
 30
0.0
 10
-357.6309538885561
 20
-294.545768089155
 30
0.0
 10
-263.8683769394441
 20
-297.1605373616739
 30
0.0
 10
-143.8834017452993
 20
-299.4074503954856
 30
0.0
 10
45.63932608081777
 20
-300.556286397831
 30
0.0
 10
285.1539079129283
 20
-297.9846384598604
 30
0.0
 10
475.4162617849976
 20
-289.9504729585787
 30
0.0
 10
571.4982374021627
 20
-285.8932410391354
 30
0.0
 11
-570.5918905553052
 21
-285.7585365339783
 31
0.0
 11
-544.7587690759401
 21
-287.1256594322133
 31
0.0
 11
-494.9636755105757
 21
-289.4006673783498
 31
0.0
 11
-428.051097415112
 21
-292.0795694859681
 31
0.0
 11
-359.5018915007758
 21
-294.4155521567302
 31
0.0
 11
-285.3196739191633
 21
-296.4833112607377
 31
0.0
 11
-146.7478838670948
 21
-299.0700679699168
 31
0.0
 11
0.4486968135524876
 21
-300.000147155859
 31
0.0
 11
283.2062893149331
 21
-296.5375071321142
 31
0.0
 11
571.4982374021627
 21
-285.8932410391354
 31
0.0
  0
ARC
  5
CF2A
330
1E
100
AcDbEntity
  8
DETAIL
  6
CONTINUOUS
100
AcDbCircle
 10
-554.9444999999932
 20
-58.53727472816536
 30
0.0
 40
10.98899999999999
100
AcDbArc
 50
180.0
 51
270.0
  0
ARC
  5
CF2B
330
1E
100
AcDbEntity
  8
DETAIL
  6
CONTINUOUS
100
AcDbCircle
 10
-554.9444999999932
 20
-58.53727472816536
 30
0.0
 40
11.98799999999999
100
AcDbArc
 50
180.0
 51
270.0
  0
LINE
  5
CF2D
330
1E
100
AcDbEntity
  8
DETAIL
  6
CONTINUOUS
100
AcDbLine
 10
-566.9324999999997
 20
-5.59027472816524
 30
0.0
 11
-566.9324999999997
 21
-58.53727472816536
 31
0.0
  0
LINE
  5
CF2E
330
1E
100
AcDbEntity
  8
DETAIL
  6
CONTINUOUS
100
AcDbLine
 10
-565.9335000000019
 20
-5.59027472816524
 30
0.0
 11
-565.9335000000019
 21
-58.53727472816536
 31
0.0
  0
LINE
  5
CF38
330
1E
100
AcDbEntity
  8
DETAIL
  6
CONTINUOUS
100
AcDbLine
 10
-566.3726444316316
 20
-62.15800101577588
 30
0.0
 11
-566.3726444316316
 21
-58.53727395214582
 31
0.0
  0
LINE
  5
CF3A
330
1E
100
AcDbEntity
  8
DETAIL
  6
CONTINUOUS
100
AcDbLine
 10
-565.9335000000019
 20
-58.53727472816536
 30
0.0
 11
-566.9324999999997
 21
-58.53727472816536
 31
0.0
  0
LINE
  5
CF3B
330
1E
100
AcDbEntity
  8
DETAIL
  6
CONTINUOUS
100
AcDbLine
 10
-491.0085000000026
 20
-58.53727472816536
 30
0.0
 11
-491.0085000000026
 21
-5.59027472816524
 31
0.0
  0
LINE
  5
CF3C
330
1E
100
AcDbEntity
  8
DETAIL
  6
CONTINUOUS
100
AcDbLine
 10
-490.0094999999919
 20
-5.59027472816524
 30
0.0
 11
-490.0095000000046
 21
-58.53727472816536
 31
0.0
  0
LINE
  5
CF3D
330
1E
100
AcDbEntity
  8
DETAIL
  6
CONTINUOUS
100
AcDbLine
 10
-481.0185000000029
 20
-58.53727472816536
 30
0.0
 11
-481.0185000000029
 21
-5.59027472816524
 31
0.0
  0
LINE
  5
CF4A
330
1E
100
AcDbEntity
  8
DETAIL
  6
CONTINUOUS
100
AcDbLine
 10
-554.9444999999932
 20
-70.52527472816518
 30
0.0
 11
-492.0075000000005
 21
-70.52527472816518
 31
0.0
  0
LINE
  5
CF4B
330
1E
100
AcDbEntity
  8
DETAIL
  6
CONTINUOUS
100
AcDbLine
 10
-554.9445000000041
 20
-69.52627472816629
 30
0.0
 11
-501.9975000000004
 21
-69.52627472816629
 31
0.0
  0
LINE
  5
CF4C
330
1E
100
AcDbEntity
  8
DETAIL
  6
CONTINUOUS
100
AcDbLine
 10
-554.9444999999932
 20
-70.52527472816518
 30
0.0
 11
-554.9445000000041
 21
-69.52627472816629
 31
0.0
  0
ARC
  5
CF4D
330
1E
100
AcDbEntity
  8
DETAIL
  6
CONTINUOUS
100
AcDbCircle
 10
-501.9975000000004
 20
-58.53727472816536
 30
0.0
 40
11.98799999999961
100
AcDbArc
 50
270.0
 51
293.5564643090634
  0
ARC
  5
CF4E
330
1E
100
AcDbEntity
  8
DETAIL
  6
CONTINUOUS
100
AcDbCircle
 10
-501.9975000000004
 20
-58.53727472816536
 30
0.0
 40
11.98799999999907
100
AcDbArc
 50
293.5564643090634
 51
0.0
  0
ARC
  5
CF4F
330
1E
100
AcDbEntity
  8
DETAIL
  6
CONTINUOUS
100
AcDbCircle
 10
-501.9975000000004
 20
-58.53727472816536
 30
0.0
 40
10.98899999999999
100
AcDbArc
 50
270.0
 51
0.0
  0
LINE
  5
CF50
330
1E
100
AcDbEntity
  8
DETAIL
  6
CONTINUOUS
100
AcDbLine
 10
-492.0075000000005
 20
-70.52527472816518
 30
0.0
 11
-492.0075000000005
 21
-69.52627472816629
 31
0.0
  0
LINE
  5
CF51
330
1E
100
AcDbEntity
  8
DETAIL
  6
CONTINUOUS
100
AcDbLine
 10
-501.9975000000004
 20
-69.52627472816629
 30
0.0
 11
-501.9975000000004
 21
-70.52527472816518
 31
0.0
  0
LINE
  5
CF52
330
1E
100
AcDbEntity
  8
DETAIL
  6
CONTINUOUS
100
AcDbLine
 10
-497.2064643082131
 20
-69.52627472816629
 30
0.0
 11
-492.0075000000005
 21
-69.52627472816629
 31
0.0
  0
LINE
  5
CF53
330
1E
100
AcDbEntity
  8
DETAIL
  6
CONTINUOUS
100
AcDbLine
 10
-490.0095000000046
 20
-58.53727472816536
 30
0.0
 11
-491.0085000000026
 21
-58.53727472816536
 31
0.0
  0
SPLINE
  5
CF5C
330
1E
100
AcDbEntity
  8
DETAIL
  6
CONTINUOUS
100
AcDbSpline
210
0.0
220
0.0
230
1.0
 70
    24
 71
     3
 72
    11
 73
     7
 74
     5
 42
0.0000000001
 43
0.0000000001
 44
0.00000001
 40
0.0
 40
0.0
 40
0.0
 40
0.0
 40
22.2302816998427
 40
46.5972819266692
 40
71.06736170844882
 40
96.3575780874104
 40
96.3575780874104
 40
96.3575780874104
 40
96.3575780874104
 10
-514.3357095565014
 20
-243.0151213669561
 30
0.0
 10
-514.2720769118104
 20
-235.6053006881158
 30
0.0
 10
-514.1386954133436
 20
-220.0734460827633
 30
0.0
 10
-513.9352700029964
 20
-196.385198966146
 30
0.0
 10
-513.723085741151
 20
-171.6770112312596
 30
0.0
 10
-513.5806503330861
 20
-155.0908574228853
 30
0.0
 10
-513.5082588368978
 20
-146.6610961257758
 30
0.0
 11
-514.3357095565014
 21
-243.0151213669561
 31
0.0
 11
-514.1448116224283
 21
-220.7856593304351
 31
0.0
 11
-513.9355650611041
 21
-196.4195575508986
 31
0.0
 11
-513.7254333254685
 21
-171.9503800171044
 31
0.0
 11
-513.5082588368978
 21
-146.6610961257758
 31
0.0
  0
LINE
  5
CF5F
330
1E
100
AcDbEntity
  8
DETAIL
  6
CONTINUOUS
100
AcDbLine
 10
-511.3383671831079
 20
-241.0837325271049
 30
0.0
 11
-510.5113729538961
 21
-146.3195801371929
 31
0.0
  0
LINE
  5
CF60
330
1E
100
AcDbEntity
  8
DETAIL
  6
CONTINUOUS
100
AcDbLine
 10
-527.3741203970685
 20
-113.4822747281637
 30
0.0
 11
-579.1202999999994
 21
-113.4822747281637
 31
0.0
  0
LINE
  5
CF61
330
1E
100
AcDbEntity
  8
DETAIL
  6
CONTINUOUS
100
AcDbLine
 10
-527.3741203970794
 20
-114.9807747281647
 30
0.0
 11
-579.1239371840573
 21
-114.9807747281647
 31
0.0
  0
LINE
  5
CF62
330
1E
100
AcDbEntity
  8
DETAIL
  6
CONTINUOUS
100
AcDbLine
 10
-579.3762865555517
 20
-114.4856336377383
 30
0.0
 11
-527.3741203994785
 21
-114.4856333075749
 31
0.0
  0
ARC
  5
CF75
330
1E
100
AcDbEntity
  8
DETAIL
  6
CONTINUOUS
100
AcDbCircle
 10
-500.7039856302354
 20
-134.258256510242
 30
0.0
 40
0.2996999999998975
100
AcDbArc
 50
180.9999999999622
 51
270.0
  0
ARC
  5
CF76
330
1E
100
AcDbEntity
  8
DETAIL
  6
CONTINUOUS
100
AcDbCircle
 10
-489.3050143697499
 20
-134.258256510242
 30
0.0
 40
0.2997000000001541
100
AcDbArc
 50
270.0
 51
358.9999999998423
  0
ARC
  5
CF7B
330
1E
100
AcDbEntity
  8
DETAIL
  6
CONTINUOUS
100
AcDbCircle
 10
-513.6851597420599
 20
-103.9917747281642
 30
0.0
 40
5.49449999999946
100
AcDbArc
 50
90.00000000000005
 51
151.9156000000069
  0
LINE
  5
CF7C
330
1E
100
AcDbEntity
  8
DETAIL
  6
CONTINUOUS
100
AcDbLine
 10
-523.8486291119178
 20
-111.3674783849387
 30
0.0
 11
-518.5327102591571
 21
-101.4051197000984
 31
0.0
  0
LINE
  5
CF7D
330
1E
100
AcDbEntity
  8
DETAIL
  6
CONTINUOUS
100
AcDbLine
 10
-517.9335986549422
 20
-102.408754847563
 30
0.0
 11
-522.9672560528277
 21
-111.8421383538624
 31
0.0
  0
LINE
  5
CF7E
330
1E
100
AcDbEntity
  8
DETAIL
  6
CONTINUOUS
100
AcDbLine
 10
-517.4929124841937
 20
-102.6395463915882
 30
0.0
 11
-522.5265698799821
 21
-112.0729297562288
 31
0.0
  0
ARC
  5
CF81
330
1E
100
AcDbEntity
  8
DETAIL
  6
CONTINUOUS
100
AcDbCircle
 10
-527.3741203970685
 20
-109.4862747281645
 30
0.0
 40
3.995999999999871
100
AcDbArc
 50
270.0
 51
331.9156000000184
  0
ARC
  5
CF82
330
1E
100
AcDbEntity
  8
DETAIL
  6
CONTINUOUS
100
AcDbCircle
 10
-527.3760429466847
 20
-109.4874274830499
 30
0.0
 40
4.998206194277035
100
AcDbArc
 50
270.022038675306
 51
331.893549480362
  0
ARC
  5
CF83
330
1E
100
AcDbEntity
  8
DETAIL
  6
CONTINUOUS
100
AcDbCircle
 10
-527.3741203970794
 20
-109.4862747281645
 30
0.0
 40
5.494499999999084
100
AcDbArc
 50
270.0
 51
331.9156000000184
  0
LINE
  5
CF85
330
1E
100
AcDbEntity
  8
DETAIL
  6
CONTINUOUS
100
AcDbLine
 10
-501.0036399844766
 20
-134.2634869964516
 30
0.0
 11
-501.0159376098536
 21
-133.5589565102417
 31
0.0
  0
LINE
  5
CF87
330
1E
100
AcDbEntity
  8
DETAIL
  6
CONTINUOUS
100
AcDbLine
 10
-489.0053600155088
 20
-134.263486996453
 30
0.0
 11
-488.99306239013
 21
-133.5589565102417
 31
0.0
  0
ARC
  5
CF8C
330
1E
100
AcDbEntity
  8
DETAIL
  6
CONTINUOUS
100
AcDbCircle
 10
-513.0841254559153
 20
-104.9942565876234
 30
0.0
 40
4.998205994961688
100
AcDbArc
 50
90.0220429706467
 51
151.8935570293476
  0
ARC
  5
CF8D
330
1E
100
AcDbEntity
  8
DETAIL
  6
CONTINUOUS
100
AcDbCircle
 10
-513.0860480856799
 20
-104.9954093991577
 30
0.0
 40
5.494499821720122
100
AcDbArc
 50
90.00000373453017
 51
151.9156046396301
  0
LINE
  5
CF8E
330
1E
100
AcDbEntity
  8
DETAIL
  6
CONTINUOUS
100
AcDbLine
 10
-487.4304082138068
 20
-133.5589565102417
 30
0.0
 11
-502.5785917861893
 21
-133.5589565102417
 31
0.0
  0
LINE
  5
D037
330
1E
100
AcDbEntity
  8
DETAIL
  6
CONTINUOUS
100
AcDbLine
 10
-489.3050143697499
 20
-134.5579565102424
 30
0.0
 11
-500.7039856302354
 21
-134.5579565102424
 31
0.0
  0
SPLINE
  5
D0EF
330
1E
100
AcDbEntity
  8
DETAIL
  6
CONTINUOUS
100
AcDbSpline
210
0.0
220
0.0
230
1.0
 70
    24
 71
     3
 72
    11
 73
     7
 74
     5
 42
0.0000000001
 43
0.0000000001
 44
0.00000001
 40
0.0
 40
0.0
 40
0.0
 40
0.0
 40
3.801249951073344
 40
7.694378660386149
 40
11.67741832329198
 40
15.74653080617468
 40
15.74653080617468
 40
15.74653080617468
 40
15.74653080617468
 10
-505.6938000000018
 20
-251.221987950905
 30
0.0
 10
-505.6938000000018
 20
-249.9549046338805
 30
0.0
 10
-505.6938000000019
 20
-247.3901117470851
 30
0.0
 10
-505.6938000000019
 20
-243.4976389726545
 30
0.0
 10
-505.6938000000017
 20
-239.5158786876206
 30
0.0
 10
-505.6938000000019
 20
-236.8318279723578
 30
0.0
 10
-505.6938000000018
 20
-235.4754571447303
 30
0.0
 11
-505.6938000000018
 21
-251.221987950905
 31
0.0
 11
-505.6938000000018
 21
-247.4207379998317
 31
0.0
 11
-505.6938000000018
 21
-243.5276092905189
 31
0.0
 11
-505.6938000000018
 21
-239.5445696276131
 31
0.0
 11
-505.6938000000018
 21
-235.4754571447303
 31
0.0
  0
LINE
  5
D0F0
330
1E
100
AcDbEntity
  8
DETAIL
  6
CONTINUOUS
100
AcDbLine
 10
-505.9935000000013
 20
-251.2425565135695
 30
0.0
 11
-505.9935000000013
 21
-235.3003995493668
 31
0.0
  0
LINE
  5
DB6B
330
1E
100
AcDbEntity
  8
DETAIL
  6
CONTINUOUS
100
AcDbLine
 10
-480.0194999999921
 20
-58.53727472816536
 30
0.0
 11
-480.0194999999921
 21
-5.59027472816524
 31
0.0
  0
SPLINE
  5
11AD3
330
1E
100
AcDbEntity
  8
DETAIL
  6
CONTINUOUS
100
AcDbSpline
210
0.0
220
0.0
230
1.0
 70
     8
 71
     3
 72
    11
 73
     7
 74
     5
 42
0.0000000001
 43
0.0000000001
 44
0.00000001
 40
0.0
 40
0.0
 40
0.0
 40
0.0
 40
40.48730343532301
 40
80.97460715879359
 40
121.4619107317042
 40
161.949214331674
 40
161.949214331674
 40
161.949214331674
 40
161.949214331674
 10
347.2597771285208
 20
-251.5439788353453
 30
0.0
 10
360.7555449366934
 20
-251.5444985489637
 30
0.0
 10
387.7470806490881
 20
-251.5455379540611
 30
0.0
 10
428.2343842105826
 20
-251.5435642791015
 30
0.0
 10
468.7216878468419
 20
-251.5440838275198
 30
0.0
 10
495.713223570583
 20
-251.5440129033437
 30
0.0
 10
509.2089914369635
 20
-251.5439774473271
 30
0.0
 11
347.2597771285208
 21
-251.5439788353453
 31
0.0
 11
387.7470805522161
 21
-251.5449491669607
 31
0.0
 11
428.234384264083
 21
-251.5439798063308
 31
0.0
 11
468.7216878369936
 21
-251.5439794950728
 31
0.0
 11
509.2089914369635
 21
-251.5439774473271
 31
0.0
  0
SPLINE
  5
11AD4
330
1E
100
AcDbEntity
  8
DETAIL
  6
CONTINUOUS
100
AcDbSpline
210
0.0
220
0.0
230
1.0
 70
     8
 71
     3
 72
    11
 73
     7
 74
     5
 42
0.0000000001
 43
0.0000000001
 44
0.00000001
 40
0.0
 40
0.0
 40
0.0
 40
0.0
 40
40.50612723812093
 40
81.01225447624898
 40
121.4811621046509
 40
161.9500697330601
 40
161.9500697330601
 40
161.9500697330601
 40
161.9500697330601
 10
509.2046789522346
 20
-251.2237204425256
 30
0.0
 10
495.7026365395278
 20
-251.2237208942119
 30
0.0
 10
468.6985517141116
 20
-251.2237218125852
 30
0.0
 10
428.2048310125597
 20
-251.223715031865
 30
0.0
 10
387.723516847586
 20
-251.2237407547809
 30
0.0
 10
360.7442450953183
 20
-251.2237524678571
 30
0.0
 10
347.2546092191833
 20
-251.2237583318948
 30
0.0
 11
509.2046789522346
 21
-251.2237204425256
 31
0.0
 11
468.6985517141136
 21
-251.2237204425256
 31
0.0
 11
428.1924244759856
 21
-251.2237204425256
 31
0.0
 11
387.7235168475881
 21
-251.2237393872112
 31
0.0
 11
347.2546092191833
 21
-251.2237583318948
 31
0.0
  0
LINE
  5
11AD5
330
1E
100
AcDbEntity
  8
DETAIL
  6
CONTINUOUS
100
AcDbLine
 10
508.5027526532948
 20
-178.9467447281658
 30
0.0
 11
346.6443919114998
 21
-178.9467447281658
 31
0.0
  0
LINE
  5
11AD7
330
1E
100
AcDbEntity
  8
DETAIL
  6
CONTINUOUS
100
AcDbLine
 10
492.0074036398863
 20
-69.51755592323388
 30
0.0
 11
439.0604036398335
 21
-69.51755592323388
 31
0.0
  0
LINE
  5
11AD8
330
1E
100
AcDbEntity
  8
DETAIL
  6
CONTINUOUS
100
AcDbLine
 10
492.0074036398863
 20
-70.52527472816655
 30
0.0
 11
439.0604036398335
 21
-70.53399353309714
 31
0.0
  0
LINE
  5
11ADE
330
1E
100
AcDbEntity
  8
DETAIL
  6
CONTINUOUS
100
AcDbLine
 10
509.4943400503098
 20
-177.947744728165
 30
0.0
 11
346.6385741638323
 21
-177.947744728165
 31
0.0
  0
LINE
  5
11AE0
330
1E
100
AcDbEntity
  8
DETAIL
  6
CONTINUOUS
100
AcDbLine
 10
362.5291173591111
 20
-114.4856333075886
 30
0.0
 11
579.376286555539
 21
-114.48563363731
 31
0.0
  0
LINE
  5
11AE1
330
1E
100
AcDbEntity
  8
DETAIL
  6
CONTINUOUS
100
AcDbLine
 10
579.1239371838754
 20
-114.9807747281647
 30
0.0
 11
362.529117356712
 21
-114.9807747281647
 31
0.0
  0
LINE
  5
11BC1
330
1E
100
AcDbEntity
  8
DETAIL
  6
CONTINUOUS
100
AcDbLine
 10
428.0801958349266
 20
-5.590274728166605
 30
0.0
 11
428.0714036394246
 21
-58.53725811194681
 31
0.0
  0
LINE
  5
11BC2
330
1E
100
AcDbEntity
  8
DETAIL
  6
CONTINUOUS
100
AcDbLine
 10
427.0724036398504
 20
-58.53725811151571
 30
0.0
 11
427.0637582250647
 21
-5.590274728166605
 31
0.0
  0
SPLINE
  5
11C2E
330
1E
100
AcDbEntity
  8
DETAIL
  6
CONTINUOUS
100
AcDbSpline
210
0.0
220
0.0
230
1.0
 70
     8
 71
     3
 72
    11
 73
     7
 74
     5
 42
0.0000000001
 43
0.0000000001
 44
0.00000001
 40
0.0
 40
0.0
 40
0.0
 40
0.0
 40
0.0103090490185359
 40
0.0206180980525428
 40
0.048790110578718
 40
0.0615904434924644
 40
0.0615904434924644
 40
0.0615904434924644
 40
0.0615904434924644
 10
428.0714036394265
 20
-58.53725811194658
 30
0.0
 10
428.0689744674009
 20
-58.5396886719651
 30
0.0
 10
428.064116133739
 20
-58.54454980239282
 30
0.0
 10
428.0526170045479
 20
-58.55605055394764
 30
0.0
 10
428.0405501009682
 20
-58.56815790767793
 30
0.0
 10
428.0309080003987
 20
-58.57783033125826
 30
0.0
 10
428.0278956782558
 20
-58.58085213618164
 30
0.0
 11
428.0714036394265
 21
-58.53725811194658
 31
0.0
 11
428.064115862594
 21
-58.54454953160189
 31
0.0
 11
428.0568280857468
 21
-58.55184095125901
 31
0.0
 11
428.0369325499623
 21
-58.57178662612409
 31
0.0
 11
428.0278956782558
 21
-58.58085213618164
 31
0.0
  0
SPLINE
  5
11C2F
330
1E
100
AcDbEntity
  8
DETAIL
  6
CONTINUOUS
100
AcDbSpline
210
0.0
220
0.0
230
1.0
 70
     8
 71
     3
 72
    11
 73
     7
 74
     5
 42
0.0000000001
 43
0.0000000001
 44
0.00000001
 40
0.0
 40
0.0
 40
0.0
 40
0.0
 40
0.0101780035791009
 40
0.0203560071565448
 40
0.048867353740835
 40
0.0617075043016177
 40
0.0617075043016177
 40
0.0617075043016177
 40
0.0617075043016177
 10
427.0724036398522
 20
-58.53725811151548
 30
0.0
 10
427.0748032238753
 20
-58.5396564841806
 30
0.0
 10
427.0796024023013
 20
-58.54445321912516
 30
0.0
 10
427.0911211953793
 20
-58.55597071926563
 30
0.0
 10
427.1032855807371
 20
-58.56809755321429
 30
0.0
 10
427.1130463221757
 20
-58.5778300732425
 30
0.0
 10
427.1160771576532
 20
-58.58085213618164
 30
0.0
 11
427.0724036398522
 21
-58.53725811151548
 31
0.0
 11
427.0796021572668
 21
-58.54445346445777
 31
0.0
 11
427.0868006746741
 21
-58.55164881740006
 31
0.0
 11
427.1069845611264
 21
-58.57178603696797
 31
0.0
 11
427.1160771576532
 21
-58.58085213618164
 31
0.0
  0
SPLINE
  5
11C30
330
1E
100
AcDbEntity
  8
DETAIL
  6
CONTINUOUS
100
AcDbSpline
210
0.0
220
0.0
230
1.0
 70
     8
 71
     3
 72
    11
 73
     7
 74
     5
 42
0.0000000001
 43
0.0000000001
 44
0.00000001
 40
0.0
 40
0.0
 40
0.0
 40
0.0
 40
0.0102398063252287
 40
0.0204796115570643
 40
0.0419589836215025
 40
0.0683250031808843
 40
0.0683250031808843
 40
0.0683250031808843
 40
0.0683250031808843
 10
439.0168096151892
 20
-69.56978262410325
 30
0.0
 10
439.0192279137621
 20
-69.56737296004172
 30
0.0
 10
439.0240645003507
 20
-69.56255362186486
 30
0.0
 10
439.0339595809641
 20
-69.55268708392013
 30
0.0
 10
439.0477796802049
 20
-69.53896521271855
 30
0.0
 10
439.0559185716514
 20
-69.52516227323588
 30
0.0
 10
439.0604036398354
 20
-69.51755592323412
 30
0.0
 11
439.0168096151892
 21
-69.56978262410325
 31
0.0
 11
439.0240627743906
 21
-69.56255453267136
 31
0.0
 11
439.0313159336065
 21
-69.55532644123946
 31
0.0
 11
439.0459630436224
 21
-69.53961575591188
 31
0.0
 11
439.0604036398354
 21
-69.51755592323412
 31
0.0
  0
SPLINE
  5
11C31
330
1E
100
AcDbEntity
  8
DETAIL
  6
CONTINUOUS
100
AcDbSpline
210
0.0
220
0.0
230
1.0
 70
     8
 71
     3
 72
    11
 73
     7
 74
     5
 42
0.0000000001
 43
0.0000000001
 44
0.00000001
 40
0.0
 40
0.0
 40
0.0
 40
0.0
 40
0.0103763937691202
 40
0.0207527864411248
 40
0.0419501292305014
 40
0.0684436449836167
 40
0.0684436449836167
 40
0.0684436449836167
 40
0.0684436449836167
 10
439.0168096151892
 20
-70.48160114972801
 30
0.0
 10
439.019252065839
 20
-70.48405104083862
 30
0.0
 10
439.0241369565431
 20
-70.48895083308188
 30
0.0
 10
439.0339967621574
 20
-70.49884891676504
 30
0.0
 10
439.047768021438
 20
-70.51260404201885
 30
0.0
 10
439.0558910773002
 20
-70.52635468669333
 30
0.0
 10
439.0604036398354
 20
-70.53399353309782
 30
0.0
 11
439.0168096151892
 21
-70.48160114972801
 31
0.0
 11
439.0241351557188
 21
-70.48895002679842
 31
0.0
 11
439.0314606962482
 21
-70.49629890387064
 31
0.0
 11
439.0458823060389
 21
-70.51183417185551
 31
0.0
 11
439.0604036398354
 21
-70.53399353309782
 31
0.0
  0
ARC
  5
11C32
330
1E
100
AcDbEntity
  8
DETAIL
  6
CONTINUOUS
100
AcDbCircle
 10
439.0647622436236
 20
-58.5416349226939
 30
0.0
 40
11.99235940246792
100
AcDbArc
 50
179.9790889511104
 51
269.9791759404579
  0
ARC
  5
11C33
330
1E
100
AcDbEntity
  8
DETAIL
  6
CONTINUOUS
100
AcDbCircle
 10
439.0604036398463
 20
-58.53727472816672
 30
0.0
 40
11.94440597534208
100
AcDbArc
 50
180.2090356862904
 51
269.7908846052356
  0
ARC
  5
11C34
330
1E
100
AcDbEntity
  8
DETAIL
  6
CONTINUOUS
100
AcDbCircle
 10
439.0604036398335
 20
-58.53727472816536
 30
0.0
 40
11.03259402465766
100
AcDbArc
 50
180.2263119669085
 51
269.7736017368847
  0
ARC
  5
11C35
330
1E
100
AcDbEntity
  8
DETAIL
  6
CONTINUOUS
100
AcDbCircle
 10
439.0560433790515
 20
-58.53291619087396
 30
0.0
 40
10.98464059774526
100
AcDbArc
 50
180.0226474190758
 51
270.0227430788472
  0
LINE
  5
11C36
330
1E
100
AcDbEntity
  8
DETAIL
  6
CONTINUOUS
100
AcDbLine
 10
428.0714036394246
 20
-58.53725811194681
 30
0.0
 11
427.0724036398504
 21
-58.53725811151571
 31
0.0
  0
LINE
  5
11C37
330
1E
100
AcDbEntity
  8
DETAIL
  6
CONTINUOUS
100
AcDbLine
 10
428.0278956782558
 20
-58.58085213618233
 30
0.0
 11
427.1160771576496
 21
-58.58085213618233
 31
0.0
  0
LINE
  5
11C38
330
1E
100
AcDbEntity
  8
DETAIL
  6
CONTINUOUS
100
AcDbLine
 10
439.0168096151856
 20
-70.48160114972779
 30
0.0
 11
439.0168096151856
 21
-69.56978262410394
 31
0.0
  0
LINE
  5
11C3C
330
1E
100
AcDbEntity
  8
DETAIL
  6
CONTINUOUS
100
AcDbLine
 10
439.0604036398335
 20
-70.53399353309714
 30
0.0
 11
439.0604036398335
 21
-69.51755592323388
 31
0.0
  0
LINE
  5
11C56
330
1E
100
AcDbEntity
  8
DETAIL
  6
CONTINUOUS
100
AcDbLine
 10
-510.5702237285213
 20
-153.0632109604688
 30
0.0
 11
343.4368396420476
 21
-153.0632109604688
 31
0.0
  0
LINE
  5
11C57
330
1E
100
AcDbEntity
  8
DETAIL
  6
CONTINUOUS
100
AcDbLine
 10
-510.5807725458406
 20
-154.2719856974939
 30
0.0
 11
343.4482808412494
 21
-154.2719856974939
 31
0.0
  0
LINE
  5
11C5A
330
1E
100
AcDbEntity
  8
DETAIL
  6
CONTINUOUS
100
AcDbLine
 10
-510.4742920523321
 20
-145.9327502284089
 30
0.0
 11
343.3369023557087
 21
-145.9327502284089
 31
0.0
  0
LINE
  5
11C5B
330
1E
100
AcDbEntity
  8
DETAIL
  6
CONTINUOUS
100
AcDbLine
 10
-510.5095499917033
 20
-146.2698238884172
 30
0.0
 11
343.3713127494402
 21
-146.2698238884172
 31
0.0
  0
LINE
  5
1245C
330
1E
100
AcDbEntity
  8
DETAIL
  6
CONTINUOUS
100
AcDbLine
 10
274.3108203087239
 20
-174.3644435063311
 30
0.0
 11
288.0913714651386
 21
-174.4088894975616
 31
0.0
  0
LINE
  5
12918
330
1E
100
AcDbEntity
  8
DETAIL
  6
CONTINUOUS
100
AcDbLine
 10
282.2174999999996
 20
-148.2587778585652
 30
0.0
 11
282.2174999999996
 21
-162.0912903429059
 31
0.0
  0
LINE
  5
1291F
330
1E
100
AcDbEntity
  8
DETAIL
  6
CONTINUOUS
100
AcDbLine
 10
280.2195000000056
 20
-148.2587778585652
 30
0.0
 11
280.2195000000065
 21
-162.0633590138566
 31
0.0
  0
LINE
  5
1293C
330
1E
100
AcDbEntity
  8
DETAIL
  6
CONTINUOUS
100
AcDbLine
 10
281.7264926864945
 20
-172.0180871801161
 30
0.0
 11
280.7102825229804
 21
-172.018086255592
 31
0.0
  0
LINE
  5
12942
330
1E
100
AcDbEntity
  8
DETAIL
  6
CONTINUOUS
100
AcDbLine
 10
279.7288177994695
 20
-172.0264423793364
 30
0.0
 11
279.7287174770163
 21
-171.4000035867557
 31
0.0
  0
LINE
  5
12959
330
1E
100
AcDbEntity
  8
DETAIL
  6
CONTINUOUS
100
AcDbLine
 10
282.7081822237331
 20
-172.0264388843329
 30
0.0
 11
282.7082825229871
 21
-171.4000035867587
 31
0.0
  0
LINE
  5
1295B
330
1E
100
AcDbEntity
  8
DETAIL
  6
CONTINUOUS
100
AcDbLine
 10
281.2185000000016
 20
-176.0475176701561
 30
0.0
 11
281.2185000000016
 21
-143.5260627831476
 31
0.0
  0
LINE
  5
12962
330
1E
100
AcDbEntity
  8
DETAIL
  6
CONTINUOUS
100
AcDbLine
 10
281.7267174770158
 20
-172.771650033132
 30
0.0
 11
281.7179934126642
 21
-143.5260627921538
 31
0.0
  0
LINE
  5
12963
330
1E
100
AcDbEntity
  8
DETAIL
  6
CONTINUOUS
100
AcDbLine
 10
280.7102825229804
 20
-172.771650033132
 30
0.0
 11
280.7190065873355
 21
-143.5260627741408
 31
0.0
  0
LINE
  5
12A7F
330
1E
100
AcDbEntity
  8
DETAIL
  6
CONTINUOUS
100
AcDbLine
 10
271.7110509508011
 20
-168.8889004127626
 30
0.0
 11
271.5057560333489
 21
-163.1419084499215
 31
0.0
  0
LINE
  5
12AA6
330
1E
100
AcDbEntity
  8
DETAIL
  6
CONTINUOUS
100
AcDbLine
 10
290.7259490492043
 20
-168.8889004127625
 30
0.0
 11
291.2044386088263
 21
-168.8889004127626
 31
0.0
  0
LINE
  5
12AA8
330
1E
100
AcDbEntity
  8
DETAIL
  6
CONTINUOUS
100
AcDbLine
 10
290.7259490492041
 20
-168.8889004127626
 30
0.0
 11
290.9312439666564
 21
-163.141908449923
 31
0.0
  0
LINE
  5
12AAE
330
1E
100
AcDbEntity
  8
DETAIL
  6
CONTINUOUS
100
AcDbLine
 10
271.7110509508011
 20
-168.8889004127626
 30
0.0
 11
271.2325613911662
 21
-168.8889004127626
 31
0.0
  0
LINE
  5
12AC3
330
1E
100
AcDbEntity
  8
DETAIL
  6
CONTINUOUS
100
AcDbLine
 10
284.3863083609821
 20
-162.5969807397168
 30
0.0
 11
289.1731505696106
 21
-162.5969807397168
 31
0.0
  0
LINE
  5
12AC8
330
1E
100
AcDbEntity
  8
DETAIL
  6
CONTINUOUS
100
AcDbLine
 10
273.2638494354223
 20
-162.5969807397168
 30
0.0
 11
278.0506545269262
 21
-162.5958789916416
 31
0.0
  0
LINE
  5
12B0C
330
1E
100
AcDbEntity
  8
DETAIL
  6
CONTINUOUS
100
AcDbLine
 10
272.2215942563152
 20
-171.9823435844831
 30
0.0
 11
273.2599787353986
 21
-171.9823435844831
 31
0.0
  0
LINE
  5
12B52
330
1E
100
AcDbEntity
  8
DETAIL
  6
CONTINUOUS
100
AcDbLine
 10
291.7079912508278
 20
-169.4055666751151
 30
0.0
 11
291.7079912508278
 21
-171.1082140436797
 31
0.0
  0
LINE
  5
12C29
330
1E
100
AcDbEntity
  8
DETAIL
  6
CONTINUOUS
100
AcDbLine
 10
271.7110509508011
 20
-168.8889004127626
 30
0.0
 11
271.5057560333489
 21
-163.1419084499215
 31
0.0
  0
LINE
  5
12C50
330
1E
100
AcDbEntity
  8
DETAIL
  6
CONTINUOUS
100
AcDbLine
 10
290.7259490492043
 20
-168.8889004127625
 30
0.0
 11
291.2044386088263
 21
-168.8889004127626
 31
0.0
  0
LINE
  5
12C52
330
1E
100
AcDbEntity
  8
DETAIL
  6
CONTINUOUS
100
AcDbLine
 10
290.7259490492041
 20
-168.8889004127626
 30
0.0
 11
290.9312439666564
 21
-163.141908449923
 31
0.0
  0
LINE
  5
12C58
330
1E
100
AcDbEntity
  8
DETAIL
  6
CONTINUOUS
100
AcDbLine
 10
271.7110509508011
 20
-168.8889004127626
 30
0.0
 11
271.2325613911662
 21
-168.8889004127626
 31
0.0
  0
LINE
  5
12C68
330
1E
100
AcDbEntity
  8
DETAIL
  6
CONTINUOUS
100
AcDbLine
 10
283.9825447638713
 20
-162.5969807397168
 30
0.0
 11
289.1731505696106
 21
-162.5969807397168
 31
0.0
  0
LINE
  5
12C6D
330
1E
100
AcDbEntity
  8
DETAIL
  6
CONTINUOUS
100
AcDbLine
 10
273.2638494354223
 20
-162.5969807397168
 30
0.0
 11
278.4306148795175
 21
-162.5957915386166
 31
0.0
  0
LINE
  5
12CB1
330
1E
100
AcDbEntity
  8
DETAIL
  6
CONTINUOUS
100
AcDbLine
 10
272.2215942563152
 20
-171.9823435844831
 30
0.0
 11
273.2599787353986
 21
-171.9823435844831
 31
0.0
  0
LINE
  5
12CC3
330
1E
100
AcDbEntity
  8
DETAIL
  6
CONTINUOUS
100
AcDbLine
 10
289.2053490126988
 20
-171.9823435844834
 30
0.0
 11
290.2154057436773
 21
-171.9823435844831
 31
0.0
  0
LINE
  5
12D07
330
1E
100
AcDbEntity
  8
DETAIL
  6
CONTINUOUS
100
AcDbLine
 10
291.7079912508278
 20
-169.4055666751151
 30
0.0
 11
291.7079912508278
 21
-171.1082140436797
 31
0.0
  0
LINE
  5
12D92
330
1E
100
AcDbEntity
  8
DETAIL
  6
CONTINUOUS
100
AcDbLine
 10
417.0695711124088
 20
-113.4822733215905
 30
0.0
 11
362.5292321434672
 21
-113.482472070519
 31
0.0
  0
ARC
  5
12DA4
330
1E
100
AcDbEntity
  8
DETAIL
  6
CONTINUOUS
100
AcDbCircle
 10
362.5292321434672
 20
-109.4864720705195
 30
0.0
 40
3.995999999999995
100
AcDbArc
 50
208.0843999999814
 51
270.0
  0
ARC
  5
12DA5
330
1E
100
AcDbEntity
  8
DETAIL
  6
CONTINUOUS
100
AcDbCircle
 10
348.8401661864855
 20
-103.9917747281642
 30
0.0
 40
5.494499999999995
100
AcDbArc
 50
28.08439999998162
 51
90.00000000000005
  0
LINE
  5
12DA6
330
1E
100
AcDbEntity
  8
DETAIL
  6
CONTINUOUS
100
AcDbLine
 10
359.0037408583039
 20
-111.3676757272937
 30
0.0
 11
353.6877167035826
 21
-101.4051197000999
 31
0.0
  0
ARC
  5
12DA7
330
1E
100
AcDbEntity
  8
DETAIL
  6
CONTINUOUS
100
AcDbCircle
 10
362.5341091957516
 20
-109.4936327440659
 30
0.0
 40
5.487144254720482
100
AcDbArc
 50
207.9995676861158
 51
269.9478761018106
  0
ARC
  5
12DA8
330
1E
100
AcDbEntity
  8
DETAIL
  6
CONTINUOUS
100
AcDbCircle
 10
362.5291169926848
 20
-109.4906330952293
 30
0.0
 40
4.99500021235903
100
AcDbArc
 50
208.0846076407742
 51
270.0000042031051
  0
ARC
  5
12DA9
330
1E
100
AcDbEntity
  8
DETAIL
  6
CONTINUOUS
100
AcDbCircle
 10
348.2429252391456
 20
-104.9922044677599
 30
0.0
 40
5.491295226716106
100
AcDbArc
 50
28.06453615173811
 51
90.02005547457253
  0
ARC
  5
12DAA
330
1E
100
AcDbEntity
  8
DETAIL
  6
CONTINUOUS
100
AcDbCircle
 10
348.2410030327327
 20
-104.9910509625574
 30
0.0
 40
4.995000000000023
100
AcDbArc
 50
28.08460000000307
 51
90.00000000000005
  0
LINE
  5
12DAB
330
1E
100
AcDbEntity
  8
DETAIL
  6
CONTINUOUS
100
AcDbLine
 10
357.6892289473753
 20
-112.0696543765548
 30
0.0
 11
352.6478589308599
 21
-102.6395310087458
 31
0.0
  0
LINE
  5
12DAC
330
1E
100
AcDbEntity
  8
DETAIL
  6
CONTINUOUS
100
AcDbLine
 10
358.1222612208011
 20
-111.8421537366989
 30
0.0
 11
353.0885442807948
 21
-102.4087379264297
 31
0.0
  0
CIRCLE
  5
12F9B
330
1E
100
AcDbEntity
  8
DETAIL
  6
CONTINUOUS
100
AcDbCircle
 10
432.0675000000001
 20
-100.4952747281663
 30
0.0
 40
5.047312829589426
  0
CIRCLE
  5
12F9C
330
1E
100
AcDbEntity
  8
DETAIL
  6
CONTINUOUS
100
AcDbCircle
 10
432.0675000000001
 20
-100.4952747281663
 30
0.0
 40
4.994999999999995
  0
CIRCLE
  5
12F9D
330
1E
100
AcDbEntity
  8
DETAIL
  6
CONTINUOUS
100
AcDbCircle
 10
432.0675000000001
 20
-100.4952747281663
 30
0.0
 40
2.273906414795594
  0
CIRCLE
  5
12F9E
330
1E
100
AcDbEntity
  8
DETAIL
  6
CONTINUOUS
100
AcDbCircle
 10
432.0675000000001
 20
-100.4952747281663
 30
0.0
 40
2.247749999999997
  0
CIRCLE
  5
12FA5
330
1E
100
AcDbEntity
  8
DETAIL
  6
CONTINUOUS
100
AcDbCircle
 10
432.0625515827805
 20
-100.4821980147203
 30
0.0
 40
1.523474999998698
  0
LINE
  5
12FB0
330
1E
100
AcDbEntity
  8
DETAIL
  6
CONTINUOUS
100
AcDbLine
 10
338.860799999994
 20
-251.2219879509052
 30
0.0
 11
338.860799999994
 21
-235.4754571447306
 31
0.0
  0
LINE
  5
12FB1
330
1E
100
AcDbEntity
  8
DETAIL
  6
CONTINUOUS
100
AcDbLine
 10
339.1604999999954
 20
-251.2425565063908
 30
0.0
 11
339.1604999999954
 21
-235.3003557087635
 31
0.0
  0
LINE
  5
13007
330
1E
100
AcDbEntity
  8
DETAIL
  6
CONTINUOUS
100
AcDbLine
 10
339.1604999999954
 20
-243.3492979346069
 30
0.0
 11
344.2067528026827
 21
-243.3492979346069
 31
0.0
  0
LINE
  5
1304C
330
1E
100
AcDbEntity
  8
DETAIL
  6
CONTINUOUS
100
AcDbLine
 10
339.1604999999954
 20
-243.3492979346069
 30
0.0
 11
344.2067528026827
 21
-243.3492979346069
 31
0.0
  0
LINE
  5
1305B
330
1E
100
AcDbEntity
  8
DETAIL
  6
CONTINUOUS
100
AcDbLine
 10
344.2509092182798
 20
-248.1938574133831
 30
0.0
 11
339.1604999999954
 21
-248.1938574133831
 31
0.0
  0
LINE
  5
13060
330
1E
100
AcDbEntity
  8
DETAIL
  6
CONTINUOUS
100
AcDbLine
 10
339.1604999999954
 20
-245.2368643236209
 30
0.0
 11
344.2231896514084
 21
-245.2368643236209
 31
0.0
  0
LINE
  5
13061
330
1E
100
AcDbEntity
  8
DETAIL
  6
CONTINUOUS
100
AcDbLine
 10
339.1604999999954
 20
-243.656232715311
 30
0.0
 11
344.2094265517707
 21
-243.656232715311
 31
0.0
  0
LINE
  5
13083
330
1E
100
AcDbEntity
  8
DETAIL
  6
CONTINUOUS
100
AcDbLine
 10
502.9964036398841
 20
-58.53728996008931
 30
0.0
 11
502.9877582251346
 21
-5.590274728166605
 31
0.0
  0
LINE
  5
13084
330
1E
100
AcDbEntity
  8
DETAIL
  6
CONTINUOUS
100
AcDbLine
 10
513.9941958350091
 20
-5.590274728166605
 30
0.0
 11
513.9941224448148
 21
-58.53729135689217
 31
0.0
  0
LINE
  5
13085
330
1E
100
AcDbEntity
  8
DETAIL
  6
CONTINUOUS
100
AcDbLine
 10
503.995477024032
 20
-5.594633798626545
 30
0.0
 11
503.9954022551619
 21
-58.53729134479728
 31
0.0
  0
LINE
  5
13086
330
1E
100
AcDbEntity
  8
DETAIL
  6
CONTINUOUS
100
AcDbLine
 10
512.9864770240336
 20
-5.594633798626545
 30
0.0
 11
512.9864036398839
 21
-58.53728996008612
 31
0.0
  0
SPLINE
  5
13096
330
1E
100
AcDbEntity
  8
DETAIL
  6
CONTINUOUS
100
AcDbSpline
210
0.0
220
0.0
230
1.0
 70
     8
 71
     3
 72
    11
 73
     7
 74
     5
 42
0.0000000001
 43
0.0000000001
 44
0.00000001
 40
0.0
 40
0.0
 40
0.0
 40
0.0
 40
0.0176479849412547
 40
0.0378655015367527
 40
0.0417238661542249
 40
0.0687324165725595
 40
0.0687324165725595
 40
0.0687324165725595
 40
0.0687324165725595
 10
513.9941224448183
 20
-58.53729135689196
 30
0.0
 10
513.9886665819132
 20
-58.53965390164873
 30
0.0
 10
513.9769604991689
 20
-58.54472299482377
 30
0.0
 10
513.9674608977386
 20
-58.55526540546264
 30
0.0
 10
513.955378059556
 20
-58.56723648106398
 30
0.0
 10
513.9480991007161
 20
-58.57451515282885
 30
0.0
 10
513.9417300058621
 20
-58.58088398474524
 30
0.0
 11
513.9941224448183
 21
-58.53729135689196
 31
0.0
 11
513.9784249779832
 21
-58.54535615465671
 31
0.0
 11
513.9635860518019
 21
-58.55908766699418
 31
0.0
 11
513.9608540460532
 21
-58.56181220671192
 31
0.0
 11
513.9417300058621
 21
-58.58088398474524
 31
0.0
  0
SPLINE
  5
13097
330
1E
100
AcDbEntity
  8
DETAIL
  6
CONTINUOUS
100
AcDbSpline
210
0.0
220
0.0
230
1.0
 70
     8
 71
     3
 72
    11
 73
     7
 74
     5
 42
0.0000000001
 43
0.0000000001
 44
0.00000001
 40
0.0
 40
0.0
 40
0.0
 40
0.0
 40
0.0101777691837066
 40
0.0203555383761045
 40
0.0488233355354303
 40
0.0617075472103902
 40
0.0617075472103902
 40
0.0617075472103902
 40
0.0617075472103902
 10
492.0074036398863
 20
-70.52527472816676
 30
0.0
 10
492.0098019555005
 20
-70.5228751975891
 30
0.0
 10
492.0145985763461
 20
-70.51807612605182
 30
0.0
 10
492.0261056987086
 20
-70.50656770556928
 30
0.0
 10
492.0382325701798
 20
-70.49440322709734
 30
0.0
 10
492.0479652264339
 20
-70.48464238062894
 30
0.0
 10
492.0509976645471
 20
-70.4816011497262
 30
0.0
 11
492.0074036398863
 21
-70.52527472816676
 31
0.0
 11
492.0145988222492
 21
-70.51807637166006
 31
0.0
 11
492.0217940046194
 21
-70.51087801515336
 31
0.0
 11
492.0419004441273
 21
-70.4907249368373
 31
0.0
 11
492.0509976645471
 21
-70.4816011497262
 31
0.0
  0
SPLINE
  5
13098
330
1E
100
AcDbEntity
  8
DETAIL
  6
CONTINUOUS
100
AcDbSpline
210
0.0
220
0.0
230
1.0
 70
     8
 71
     3
 72
    11
 73
     7
 74
     5
 42
0.0000000001
 43
0.0000000001
 44
0.00000001
 40
0.0
 40
0.0
 40
0.0
 40
0.0
 40
0.0176484204172943
 40
0.0378652012299492
 40
0.0417236885743844
 40
0.0687330980971739
 40
0.0687330980971739
 40
0.0687330980971739
 40
0.0687330980971739
 10
501.9974036398989
 20
-70.53399353309782
 30
0.0
 10
501.9997666230571
 20
-70.52853772555313
 30
0.0
 10
502.0048364915542
 20
-70.51683214327325
 30
0.0
 10
502.0153786110325
 20
-70.50733249619303
 30
0.0
 10
502.0273497763959
 20
-70.49524962173515
 30
0.0
 10
502.0346286855037
 20
-70.48797043967676
 30
0.0
 10
502.0409977250956
 20
-70.48160114950611
 30
0.0
 11
501.9974036398989
 21
-70.53399353309782
 31
0.0
 11
502.0054695831269
 21
-70.51829616521011
 31
0.0
 11
502.019200684691
 21
-70.50345786139065
 31
0.0
 11
502.0219253147433
 21
-70.50072577240484
 31
0.0
 11
502.0409977250956
 21
-70.48160114950611
 31
0.0
  0
SPLINE
  5
13099
330
1E
100
AcDbEntity
  8
DETAIL
  6
CONTINUOUS
100
AcDbSpline
210
0.0
220
0.0
230
1.0
 70
     8
 71
     3
 72
    11
 73
     7
 74
     5
 42
0.0000000001
 43
0.0000000001
 44
0.00000001
 40
0.0
 40
0.0
 40
0.0
 40
0.0
 40
0.0176644236931807
 40
0.0378329490579257
 40
0.0481157210672205
 40
0.0583984906086666
 40
0.0583984906086666
 40
0.0583984906086666
 40
0.0583984906086666
 10
492.0074036398863
 20
-69.51755592323412
 30
0.0
 10
492.0097750003654
 20
-69.52301395215048
 30
0.0
 10
492.0148538978774
 20
-69.53470373126297
 30
0.0
 10
492.0269554806971
 20
-69.54568191720486
 30
0.0
 10
492.0364649675264
 20
-69.55531949439602
 30
0.0
 10
492.0413287722896
 20
-69.56015593960497
 30
0.0
 10
492.0437606684563
 20
-69.56257416789617
 30
0.0
 11
492.0074036398863
 21
-69.51755592323412
 31
0.0
 11
492.0154848798837
 21
-69.53326342070273
 31
0.0
 11
492.029200645672
 21
-69.54805015921215
 31
0.0
 11
492.0364806570568
 21
-69.55531216355325
 31
0.0
 11
492.0437606684563
 21
-69.56257416789617
 31
0.0
  0
SPLINE
  5
1309A
330
1E
100
AcDbEntity
  8
DETAIL
  6
CONTINUOUS
100
AcDbSpline
210
0.0
220
0.0
230
1.0
 70
     8
 71
     3
 72
    11
 73
     7
 74
     5
 42
0.0000000001
 43
0.0000000001
 44
0.00000001
 40
0.0
 40
0.0
 40
0.0
 40
0.0
 40
0.0102971725253838
 40
0.0205943450586492
 40
0.0411920930499327
 40
0.0615903563259228
 40
0.0615903563259228
 40
0.0615903563259228
 40
0.0615903563259228
 10
503.0399114756355
 20
-58.58088398474524
 30
0.0
 10
503.0374885257101
 20
-58.57845280800303
 30
0.0
 10
503.0326426154841
 20
-58.57359046485424
 30
0.0
 10
503.0229519342817
 20
-58.56386304080264
 30
0.0
 10
503.0108705999118
 20
-58.55176453673097
 30
0.0
 10
503.0012102947247
 20
-58.54209913814784
 30
0.0
 10
502.9964036398878
 20
-58.53728996008999
 30
0.0
 11
503.0399114756355
 21
-58.58088398474524
 31
0.0
 11
503.0326428650433
 21
-58.57359021602519
 31
0.0
 11
503.0253742544436
 21
-58.56629644730514
 31
0.0
 11
503.0108225323045
 21
-58.55171856661968
 31
0.0
 11
502.9964036398878
 21
-58.53728996008999
 31
0.0
  0
SPLINE
  5
1309B
330
1E
100
AcDbEntity
  8
DETAIL
  6
CONTINUOUS
100
AcDbSpline
210
0.0
220
0.0
230
1.0
 70
     8
 71
     3
 72
    11
 73
     7
 74
     5
 42
0.0000000001
 43
0.0000000001
 44
0.00000001
 40
0.0
 40
0.0
 40
0.0
 40
0.0
 40
0.0103099981514625
 40
0.0206199963157868
 40
0.0487388684414303
 40
0.0615903513191915
 40
0.0615903513191915
 40
0.0615903513191915
 40
0.0615903513191915
 10
501.9974050246228
 20
-69.52627472816698
 30
0.0
 10
501.9998358091437
 20
-69.52870412311473
 30
0.0
 10
502.0046973885752
 20
-69.53356290262118
 30
0.0
 10
502.0161860575601
 20
-69.54504995861819
 30
0.0
 10
502.0282931905915
 20
-69.55711659193453
 30
0.0
 10
502.0379651174025
 20
-69.56675825105517
 30
0.0
 10
502.040998988973
 20
-69.56978261887002
 30
0.0
 11
501.9974050246228
 21
-69.52627472816698
 31
0.0
 11
502.004697116993
 21
-69.5335631745604
 31
0.0
 11
502.011989209378
 21
-69.54085162095203
 31
0.0
 11
502.0318972735758
 21
-69.56070961555656
 31
0.0
 11
502.040998988973
 21
-69.56978261887002
 31
0.0
  0
SPLINE
  5
1309C
330
1E
100
AcDbEntity
  8
DETAIL
  6
CONTINUOUS
100
AcDbSpline
210
0.0
220
0.0
230
1.0
 70
     8
 71
     3
 72
    11
 73
     7
 74
     5
 42
0.0000000001
 43
0.0000000001
 44
0.00000001
 40
0.0
 40
0.0
 40
0.0
 40
0.0
 40
0.0103753201282754
 40
0.0207506402655437
 40
0.0411633966650334
 40
0.0617056291632226
 40
0.0617056291632226
 40
0.0617056291632226
 40
0.0617056291632226
 10
503.9517300058496
 20
-58.58088398474524
 30
0.0
 10
503.9541793049043
 20
-58.57844231697626
 30
0.0
 10
503.9590778926749
 20
-58.57355897106247
 30
0.0
 10
503.9687971150041
 20
-58.56387361066741
 30
0.0
 10
503.9809036583689
 20
-58.5517828145335
 30
0.0
 10
503.9905592181587
 20
-58.54213200851288
 30
0.0
 10
503.9954022551601
 20
-58.53729134479749
 30
0.0
 11
503.9517300058496
 21
-58.58088398474524
 31
0.0
 11
503.9590781279392
 21
-58.57355920696159
 31
0.0
 11
503.9664262500364
 21
-58.56623442917612
 31
0.0
 11
503.9808721575018
 21
-58.55181234952421
 31
0.0
 11
503.9954022551601
 21
-58.53729134479749
 31
0.0
  0
SPLINE
  5
1309D
330
1E
100
AcDbEntity
  8
DETAIL
  6
CONTINUOUS
100
AcDbSpline
210
0.0
220
0.0
230
1.0
 70
     8
 71
     3
 72
    11
 73
     7
 74
     5
 42
0.0000000001
 43
0.0000000001
 44
0.00000001
 40
0.0
 40
0.0
 40
0.0
 40
0.0
 40
0.0101840948030662
 40
0.0203681895995223
 40
0.0487603313091526
 40
0.0615903552589124
 40
0.0615903552589124
 40
0.0615903552589124
 40
0.0615903552589124
 10
512.9864036398856
 20
-58.53728996008635
 30
0.0
 10
512.9888033872267
 20
-58.53969104082096
 30
0.0
 10
512.993602871521
 20
-58.54449321266973
 30
0.0
 10
513.0050950555865
 20
-58.55598687127267
 30
0.0
 10
513.0171912677122
 20
-58.56812377876117
 30
0.0
 10
513.0268921645221
 20
-58.57785517233327
 30
0.0
 10
513.0299114756479
 20
-58.58088398474524
 30
0.0
 11
512.9864036398856
 21
-58.53728996008635
 31
0.0
 11
512.993603137721
 21
-58.54449294682513
 31
0.0
 11
513.0008026355417
 21
-58.55169593356389
 31
0.0
 11
513.0208536430936
 21
-58.57179744612428
 31
0.0
 11
513.0299114756479
 21
-58.58088398474524
 31
0.0
  0
ARC
  5
1309E
330
1E
100
AcDbEntity
  8
DETAIL
  6
CONTINUOUS
100
AcDbCircle
 10
492.0074036398863
 20
-58.53727472816399
 30
0.0
 40
11.94440597534318
100
AcDbArc
 50
270.2091153947643
 51
359.7908115392153
  0
ARC
  5
1309F
330
1E
100
AcDbEntity
  8
DETAIL
  6
CONTINUOUS
100
AcDbCircle
 10
501.9974036398989
 20
-58.53727472816536
 30
0.0
 40
11.94440597534137
100
AcDbArc
 50
270.2091156851244
 51
359.7908115392283
  0
ARC
  5
130A0
330
1E
100
AcDbEntity
  8
DETAIL
  6
CONTINUOUS
100
AcDbCircle
 10
501.9974036398989
 20
-58.53727472816536
 30
0.0
 40
11.99671880493123
100
AcDbArc
 50
270.0
 51
359.9999205819587
  0
ARC
  5
130A1
330
1E
100
AcDbEntity
  8
DETAIL
  6
CONTINUOUS
100
AcDbCircle
 10
492.003045398428
 20
-58.54395862784031
 30
0.0
 40
11.99235871010918
100
AcDbArc
 50
293.787296167603
 51
0.0318542171881861
  0
ARC
  5
130A2
330
1E
100
AcDbEntity
  8
DETAIL
  6
CONTINUOUS
100
AcDbCircle
 10
492.0110359332128
 20
-58.53364601291378
 30
0.0
 40
11.02897670484881
100
AcDbArc
 50
270.1700059776367
 51
359.7545969343926
  0
ARC
  5
130A3
330
1E
100
AcDbEntity
  8
DETAIL
  6
CONTINUOUS
100
AcDbCircle
 10
492.0117639130976
 20
-58.53291619108905
 30
0.0
 40
10.98464059753541
100
AcDbArc
 50
269.9772568563277
 51
359.9771864624401
  0
ARC
  5
130A4
330
1E
100
AcDbEntity
  8
DETAIL
  6
CONTINUOUS
100
AcDbCircle
 10
501.9974036398989
 20
-58.53727472816536
 30
0.0
 40
11.03259402465815
100
AcDbArc
 50
270.2264051412995
 51
359.7735226320591
  0
ARC
  5
130A5
330
1E
100
AcDbEntity
  8
DETAIL
  6
CONTINUOUS
100
AcDbCircle
 10
492.0074036398863
 20
-58.53727472816536
 30
0.0
 40
11.98799999999998
100
AcDbArc
 50
270.0
 51
293.5564643090634
  0
ARC
  5
130A6
330
1E
100
AcDbEntity
  8
DETAIL
  6
CONTINUOUS
100
AcDbCircle
 10
501.9974036398989
 20
-58.53727472816536
 30
0.0
 40
10.98899999999964
100
AcDbArc
 50
270.0000072198692
 51
359.9999205819716
  0
LINE
  5
130A7
330
1E
100
AcDbEntity
  8
DETAIL
  6
CONTINUOUS
100
AcDbLine
 10
502.0409989889748
 20
-69.5697826188707
 30
0.0
 11
502.0409977250956
 21
-70.48160114950542
 31
0.0
  0
LINE
  5
130A8
330
1E
100
AcDbEntity
  8
DETAIL
  6
CONTINUOUS
100
AcDbLine
 10
501.9974050246191
 20
-69.52627472816629
 30
0.0
 11
501.9974036398989
 21
-70.53399353309714
 31
0.0
  0
LINE
  5
130A9
330
1E
100
AcDbEntity
  8
DETAIL
  6
CONTINUOUS
100
AcDbLine
 10
501.9974036398989
 20
-70.53399353309714
 30
0.0
 11
492.0074036398863
 21
-70.52527472816655
 31
0.0
  0
LINE
  5
130AA
330
1E
100
AcDbEntity
  8
DETAIL
  6
CONTINUOUS
100
AcDbLine
 10
503.9954022551619
 20
-58.53729134479728
 30
0.0
 11
502.9964036398841
 21
-58.53728996008931
 31
0.0
  0
LINE
  5
130AB
330
1E
100
AcDbEntity
  8
DETAIL
  6
CONTINUOUS
100
AcDbLine
 10
503.9517300058458
 20
-58.58088398474546
 30
0.0
 11
503.0399114756319
 21
-58.58088398474546
 31
0.0
  0
LINE
  5
130AC
330
1E
100
AcDbEntity
  8
DETAIL
  6
CONTINUOUS
100
AcDbLine
 10
492.0437606684563
 20
-69.56257416789686
 30
0.0
 11
492.0509976645471
 21
-70.48160114972644
 31
0.0
  0
LINE
  5
130AD
330
1E
100
AcDbEntity
  8
DETAIL
  6
CONTINUOUS
100
AcDbLine
 10
496.7984393316847
 20
-69.52627472816629
 30
0.0
 11
496.8400723603581
 21
-69.51755592323388
 31
0.0
  0
LINE
  5
130AE
330
1E
100
AcDbEntity
  8
DETAIL
  6
CONTINUOUS
100
AcDbLine
 10
501.9974050246191
 20
-69.52627472816629
 30
0.0
 11
496.8400723603581
 21
-69.51755592323388
 31
0.0
  0
LINE
  5
130AF
330
1E
100
AcDbEntity
  8
DETAIL
  6
CONTINUOUS
100
AcDbLine
 10
513.9417300058584
 20
-58.58088398474546
 30
0.0
 11
513.0299114756443
 21
-58.58088398474546
 31
0.0
  0
LINE
  5
130B0
330
1E
100
AcDbEntity
  8
DETAIL
  6
CONTINUOUS
100
AcDbLine
 10
513.9941224448148
 20
-58.53729135689217
 30
0.0
 11
512.9864036398839
 21
-58.53728996008612
 31
0.0
  0
LINE
  5
130B1
330
1E
100
AcDbEntity
  8
DETAIL
  6
CONTINUOUS
100
AcDbLine
 10
492.0074036398863
 20
-70.52527472816655
 30
0.0
 11
492.0074036398863
 21
-69.51755592323388
 31
0.0
  0
LINE
  5
130C3
330
1E
100
AcDbEntity
  8
DETAIL
  6
CONTINUOUS
100
AcDbLine
 10
509.9938210308801
 20
-178.4428858236829
 30
0.0
 11
510.6681955255835
 21
-255.718548853471
 31
0.0
  0
ARC
  5
130D2
330
1E
100
AcDbEntity
  8
DETAIL
  6
CONTINUOUS
100
AcDbCircle
 10
509.4943400503098
 20
-178.4472447281655
 30
0.0
 40
0.4994999999999996
100
AcDbArc
 50
0.5000000001089361
 51
90.00000000000005
  0
SPLINE
  5
130EE
330
1E
100
AcDbEntity
  8
DETAIL
  6
CONTINUOUS
100
AcDbSpline
210
0.0
220
0.0
230
1.0
 70
     8
 71
     3
 72
    11
 73
     7
 74
     5
 42
0.0000000001
 43
0.0000000001
 44
0.00000001
 40
0.0
 40
0.0
 40
0.0
 40
0.0
 40
1.235514218937891
 40
2.471028437864128
 40
3.706542656790478
 40
4.942056875713706
 40
4.942056875713706
 40
4.942056875713706
 40
4.942056875713706
 10
485.3447656691995
 20
-232.3650067865039
 30
0.0
 10
485.7566037421771
 20
-232.3650081128521
 30
0.0
 10
486.5802798881283
 20
-232.3650107405486
 30
0.0
 10
487.8157941070593
 20
-232.3650103951249
 30
0.0
 10
489.0513083259855
 20
-232.36501074061
 30
0.0
 10
489.874984471932
 20
-232.3650081122069
 30
0.0
 10
490.2868225449046
 20
-232.3650067855052
 30
0.0
 11
485.3447656691995
 21
-232.3650067865039
 31
0.0
 11
486.5802798881332
 21
-232.3650100360539
 31
0.0
 11
487.8157941070593
 21
-232.3650105002764
 31
0.0
 11
489.0513083259857
 21
-232.3650100359284
 31
0.0
 11
490.2868225449046
 21
-232.3650067855052
 31
0.0
  0
LINE
  5
130EF
330
1E
100
AcDbEntity
  8
DETAIL
  6
CONTINUOUS
100
AcDbLine
 10
490.2868355329347
 20
-229.7268364946525
 30
0.0
 11
485.3447526691152
 21
-229.7268364946525
 31
0.0
  0
LINE
  5
130F0
330
1E
100
AcDbEntity
  8
DETAIL
  6
CONTINUOUS
100
AcDbLine
 10
490.2868355329347
 20
-231.1578320109223
 30
0.0
 11
485.3447526691152
 21
-231.1578320109223
 31
0.0
  0
LINE
  5
130F1
330
1E
100
AcDbEntity
  8
DETAIL
  6
CONTINUOUS
100
AcDbLine
 10
490.2868225449156
 20
-231.9406533487103
 30
0.0
 11
485.3447656691886
 21
-231.9406533487148
 31
0.0
  0
LINE
  5
130F2
330
1E
100
AcDbEntity
  8
DETAIL
  6
CONTINUOUS
100
AcDbLine
 10
491.8578078947785
 20
-224.9712345076309
 30
0.0
 11
468.3891803097676
 21
-224.9712346022738
 31
0.0
  0
LINE
  5
130F3
330
1E
100
AcDbEntity
  8
DETAIL
  6
CONTINUOUS
100
AcDbLine
 10
491.8578282185707
 20
-209.8204211767369
 30
0.0
 11
468.3891599917797
 21
-209.8204211767369
 31
0.0
  0
LINE
  5
130F4
330
1E
100
AcDbEntity
  8
DETAIL
  6
CONTINUOUS
100
AcDbLine
 10
491.8578282210173
 20
-211.1452491447283
 30
0.0
 11
468.3891599893458
 21
-211.1452490794463
 31
0.0
  0
LINE
  5
130F5
330
1E
100
AcDbEntity
  8
DETAIL
  6
CONTINUOUS
100
AcDbLine
 10
491.8578078964156
 20
-224.5074439035738
 30
0.0
 11
468.3891803081214
 21
-224.5074439794484
 31
0.0
  0
LINE
  5
130F6
330
1E
100
AcDbEntity
  8
DETAIL
  6
CONTINUOUS
100
AcDbLine
 10
490.3728603989956
 20
-232.9486591079507
 30
0.0
 11
485.2587278056935
 21
-232.9486591078161
 31
0.0
  0
LINE
  5
130F7
330
1E
100
AcDbEntity
  8
DETAIL
  6
CONTINUOUS
100
AcDbLine
 10
490.3764384328123
 20
-229.6578579942461
 30
0.0
 11
485.25514977321
 21
-229.6578579942428
 31
0.0
  0
LINE
  5
130F8
330
1E
100
AcDbEntity
  8
DETAIL
  6
CONTINUOUS
100
AcDbLine
 10
491.8969006477954
 20
-209.5808082780144
 30
0.0
 11
468.3500875576728
 21
-209.5808083092693
 31
0.0
  0
LINE
  5
130F9
330
1E
100
AcDbEntity
  8
DETAIL
  6
CONTINUOUS
100
AcDbLine
 10
491.8960481055536
 20
-209.3791059471336
 30
0.0
 11
468.3509400183965
 21
-209.3791056735693
 31
0.0
  0
LINE
  5
130FA
330
1E
100
AcDbEntity
  8
DETAIL
  6
CONTINUOUS
100
AcDbLine
 10
490.3751586570024
 20
-229.4880754657883
 30
0.0
 11
485.2564295500606
 21
-229.4880754656563
 31
0.0
  0
LINE
  5
130FB
330
1E
100
AcDbEntity
  8
DETAIL
  6
CONTINUOUS
100
AcDbLine
 10
491.8946749903507
 20
-225.6873165777419
 30
0.0
 11
468.3523147747099
 21
-225.6873164331923
 31
0.0
  0
LINE
  5
130FC
330
1E
100
AcDbEntity
  8
DETAIL
  6
CONTINUOUS
100
AcDbLine
 10
491.8955025667192
 20
-225.0176730170656
 30
0.0
 11
468.351485639695
 21
-225.017672994319
 31
0.0
  0
SPLINE
  5
13103
330
1E
100
AcDbEntity
  8
DETAIL
  6
CONTINUOUS
100
AcDbSpline
210
0.0
220
0.0
230
1.0
 70
     8
 71
     3
 72
    11
 73
     7
 74
     5
 42
0.0000000001
 43
0.0000000001
 44
0.00000001
 40
0.0
 40
0.0
 40
0.0
 40
0.0
 40
3.26596372581381
 40
6.574150773596448
 40
9.914454179940261
 40
13.29130928360216
 40
13.29130928360216
 40
13.29130928360216
 40
13.29130928360216
 10
467.3903324731426
 20
-223.9809654899493
 30
0.0
 10
467.3911168204479
 20
-222.8923111787374
 30
0.0
 10
467.392695640281
 20
-220.7009281190619
 30
0.0
 10
467.3932658477562
 20
-217.396109977168
 30
0.0
 10
467.3926596249194
 20
-214.0543280640713
 30
0.0
 10
467.3910974830547
 20
-211.8152757379139
 30
0.0
 10
467.3903121543689
 20
-210.6896576266755
 30
0.0
 11
467.3903324731426
 21
-223.9809654899493
 31
0.0
 11
467.392389173029
 21
-220.7150024117238
 31
0.0
 11
467.3930698004904
 21
-217.4068154339531
 31
0.0
 11
467.3923759912494
 21
-214.0665120996601
 31
0.0
 11
467.3903121543689
 21
-210.6896576266755
 31
0.0
  0
SPLINE
  5
13104
330
1E
100
AcDbEntity
  8
DETAIL
  6
CONTINUOUS
100
AcDbSpline
210
0.0
220
0.0
230
1.0
 70
     8
 71
     3
 72
     9
 73
     5
 74
     3
 42
0.0000000001
 43
0.0000000001
 44
0.00000001
 40
0.0
 40
0.0
 40
0.0
 40
0.0
 40
6.529081237334764
 40
13.21541383433026
 40
13.21541383433026
 40
13.21541383433026
 40
13.21541383433026
 10
467.3638194161167
 20
-223.2552789735748
 30
0.0
 10
467.3651948078721
 20
-221.078918765093
 30
0.0
 10
467.3679786973618
 20
-216.6737812331505
 30
0.0
 10
467.3652816422926
 20
-212.2686436336635
 30
0.0
 10
467.363917058391
 20
-210.0398662760328
 30
0.0
 11
467.3638194161167
 21
-223.2552789735748
 31
0.0
 11
467.3666077605876
 21
-216.7261983316385
 31
0.0
 11
467.363917058391
 21
-210.0398662760328
 31
0.0
  0
SPLINE
  5
13139
330
1E
100
AcDbEntity
  8
DETAIL
  6
CONTINUOUS
100
AcDbSpline
210
0.0
220
0.0
230
1.0
 70
     8
 71
     3
 72
    11
 73
     7
 74
     5
 42
0.0000000001
 43
0.0000000001
 44
0.00000001
 40
0.0
 40
0.0
 40
0.0
 40
0.0
 40
3.283382260089167
 40
6.609212972709473
 40
9.967331321628558
 40
13.36219631279607
 40
13.36219631279607
 40
13.36219631279607
 40
13.36219631279607
 10
468.3891803081196
 20
-224.5074439794481
 30
0.0
 10
468.3899646554094
 20
-223.4129834887436
 30
0.0
 10
468.3915434751972
 20
-221.2099130265439
 30
0.0
 10
468.3921136826934
 20
-217.8874691711885
 30
0.0
 10
468.3915074598514
 20
-214.5278644267733
 30
0.0
 10
468.3899453180169
 20
-212.2768704878807
 30
0.0
 10
468.3891599893458
 20
-211.1452490794456
 30
0.0
 11
468.3891803081196
 21
-224.5074439794481
 31
0.0
 11
468.3912370079696
 21
-221.2240623635118
 31
0.0
 11
468.3919176354238
 21
-217.898231720532
 31
0.0
 11
468.3912238261901
 21
-214.5401134432816
 31
0.0
 11
468.3891599893458
 21
-211.1452490794456
 31
0.0
  0
SPLINE
  5
13168
330
1E
100
AcDbEntity
  8
DETAIL
  6
CONTINUOUS
100
AcDbSpline
210
0.0
220
0.0
230
1.0
 70
     8
 71
     3
 72
     9
 73
     5
 74
     3
 42
0.0000000001
 43
0.0000000001
 44
0.00000001
 40
0.0
 40
0.0
 40
0.0
 40
0.0
 40
6.309722691002054
 40
12.76668835770233
 40
12.76668835770233
 40
12.76668835770233
 40
12.76668835770233
 10
467.165265243616
 20
-223.255841047003
 30
0.0
 10
467.1643965364218
 20
-221.1526002766003
 30
0.0
 10
467.1626388699833
 20
-216.8970377468457
 30
0.0
 10
467.1634577705012
 20
-212.6414749299005
 30
0.0
 10
467.1638719532193
 20
-210.4891530252991
 30
0.0
 11
467.165265243616
 21
-223.255841047003
 31
0.0
 11
467.1632885009739
 21
-216.9461186656409
 31
0.0
 11
467.1638719532193
 21
-210.4891530252991
 31
0.0
  0
SPLINE
  5
13169
330
1E
100
AcDbEntity
  8
DETAIL
  6
CONTINUOUS
100
AcDbSpline
210
0.0
220
0.0
230
1.0
 70
     8
 71
     3
 72
    11
 73
     7
 74
     5
 42
0.0000000001
 43
0.0000000001
 44
0.00000001
 40
0.0
 40
0.0
 40
0.0
 40
0.0
 40
3.08379377655107
 40
6.601012626358365
 40
10.16238564796081
 40
13.36207121587847
 40
13.36207121587847
 40
13.36207121587847
 40
13.36207121587847
 10
467.1521769496603
 20
-224.0064252664144
 30
0.0
 10
467.1517052395177
 20
-222.9784941118897
 30
0.0
 10
467.1506955363799
 20
-220.7781567930783
 30
0.0
 10
467.1500686254922
 20
-217.3906949310095
 30
0.0
 10
467.1500887393248
 20
-213.9646024181594
 30
0.0
 10
467.1506831048321
 20
-211.7109162922916
 30
0.0
 10
467.1509643969684
 20
-210.6443544697505
 30
0.0
 11
467.1521769496603
 21
-224.0064252664144
 31
0.0
 11
467.1508933161158
 21
-220.9226317570194
 31
0.0
 11
467.1501825700824
 21
-217.4054129790221
 31
0.0
 11
467.1502506806417
 21
-213.8440399580688
 31
0.0
 11
467.1509643969684
 21
-210.6443544697505
 31
0.0
  0
SPLINE
  5
1316A
330
1E
100
AcDbEntity
  8
DETAIL
  6
CONTINUOUS
100
AcDbSpline
210
0.0
220
0.0
230
1.0
 70
     8
 71
     3
 72
    21
 73
    17
 74
    15
 42
0.0000000001
 43
0.0000000001
 44
0.00000001
 40
0.0
 40
0.0
 40
0.0
 40
0.0
 40
3.290510884752591
 40
6.622414828976175
 40
7.573060657642274
 40
8.474291051978481
 40
9.319901856221896
 40
10.10368891380747
 40
10.81944806715241
 40
11.46097515793545
 40
12.02206602718097
 40
12.49651651532432
 40
12.87812246227933
 40
13.16067970750324
 40
13.33798409004651
 40
13.40383144858035
 40
13.40383144858035
 40
13.40383144858035
 40
13.40383144858035
 10
466.6484611042968
 20
-224.2779453093081
 30
0.0
 10
466.6479413194484
 20
-223.1811084678219
 30
0.0
 10
466.6468952293301
 20
-220.9736370998634
 30
0.0
 10
466.6463599797626
 20
-218.4492835673633
 30
0.0
 10
466.6462579136358
 20
-216.7213568481225
 30
0.0
 10
466.6462540449614
 20
-215.8221945051287
 30
0.0
 10
466.6462955453998
 20
-214.9786517537553
 30
0.0
 10
466.6463724065506
 20
-214.1969327521747
 30
0.0
 10
466.6464754367476
 20
-213.4832416588056
 30
0.0
 10
466.6465952452897
 20
-212.8437826320528
 30
0.0
 10
466.6467224854572
 20
-212.2847598303339
 30
0.0
 10
466.6468478044173
 20
-211.8123774120709
 30
0.0
 10
466.6469618422467
 20
-211.432839535687
 30
0.0
 10
466.6470552829768
 20
-211.1523503596336
 30
0.0
 10
466.6471187853805
 20
-210.9771140423446
 30
0.0
 10
466.6471501068466
 20
-210.8960634680367
 30
0.0
 10
466.6471585958341
 20
-210.8741143501668
 30
0.0
 11
466.6484611042968
 21
-224.2779453093081
 31
0.0
 11
466.647044464632
 21
-220.9874347295065
 31
0.0
 11
466.6463238438363
 21
-217.6555308632179
 31
0.0
 11
466.6462658393928
 21
-216.7048850363463
 31
0.0
 11
466.6462622670796
 21
-215.8036546420445
 31
0.0
 11
466.6463037554631
 21
-214.9580438387713
 31
0.0
 11
466.6463809331171
 21
-214.1742567849779
 31
0.0
 11
466.646484428601
 21
-213.4584976391125
 31
0.0
 11
466.6466048704887
 21
-212.816970559634
 31
0.0
 11
466.6467328873323
 21
-212.2558797049916
 31
0.0
 11
466.6468591077126
 21
-211.7814292336372
 31
0.0
 11
466.6469741601821
 21
-211.3998233040258
 31
0.0
 11
466.6470686733218
 21
-211.117266074609
 31
0.0
 11
466.6471332756835
 21
-210.9399617038381
 31
0.0
 11
466.6471585958341
 21
-210.8741143501668
 31
0.0
  0
SPLINE
  5
131A4
330
1E
100
AcDbEntity
  8
DETAIL
  6
CONTINUOUS
100
AcDbSpline
210
0.0
220
0.0
230
1.0
 70
     8
 71
     3
 72
     9
 73
     5
 74
     3
 42
0.0000000001
 43
0.0000000001
 44
0.00000001
 40
0.0
 40
0.0
 40
0.0
 40
0.0
 40
6.529702424730459
 40
13.22038172889534
 40
13.22038172889534
 40
13.22038172889534
 40
13.22038172889534
 10
492.8831687884076
 20
-223.2552789738968
 30
0.0
 10
492.881865100762
 20
-221.0787118373413
 30
0.0
 10
492.8792256056377
 20
-216.6719186127524
 30
0.0
 10
492.8791918061797
 20
-212.2651245946896
 30
0.0
 10
492.8791747107961
 20
-210.0348981050903
 30
0.0
 11
492.8831687884076
 21
-223.2552789738968
 31
0.0
 11
492.8798933917123
 21
-216.7255773706584
 31
0.0
 11
492.8791747107961
 21
-210.0348981050903
 31
0.0
  0
SPLINE
  5
131A5
330
1E
100
AcDbEntity
  8
DETAIL
  6
CONTINUOUS
100
AcDbSpline
210
0.0
220
0.0
230
1.0
 70
     8
 71
     3
 72
    11
 73
     7
 74
     5
 42
0.0000000001
 43
0.0000000001
 44
0.00000001
 40
0.0
 40
0.0
 40
0.0
 40
0.0
 40
3.265963726092989
 40
6.574150773917082
 40
9.914454179964677
 40
13.29130928351111
 40
13.29130928351111
 40
13.29130928351111
 40
13.29130928351111
 10
492.8566557313961
 20
-223.9809654902766
 30
0.0
 10
492.8558713845786
 20
-222.8923111789712
 30
0.0
 10
492.8542925657272
 20
-220.7009281191882
 30
0.0
 10
492.8537223596834
 20
-217.396109977286
 30
0.0
 10
492.8543285840088
 20
-214.0543280643129
 30
0.0
 10
492.8558907268258
 20
-211.8152757382935
 30
0.0
 10
492.8566760559905
 20
-210.689657627094
 30
0.0
 11
492.8566557313961
 21
-223.9809654902766
 31
0.0
 11
492.8545990329649
 21
-220.715002411771
 31
0.0
 11
492.8539184069514
 21
-217.4068154339586
 31
0.0
 11
492.8546122176621
 21
-214.0665120999622
 31
0.0
 11
492.8566760559905
 21
-210.689657627094
 31
0.0
  0
SPLINE
  5
131BC
330
1E
100
AcDbEntity
  8
DETAIL
  6
CONTINUOUS
100
AcDbSpline
210
0.0
220
0.0
230
1.0
 70
     8
 71
     3
 72
    11
 73
     7
 74
     5
 42
0.0000000001
 43
0.0000000001
 44
0.00000001
 40
0.0
 40
0.0
 40
0.0
 40
0.0
 40
3.283382193982555
 40
6.609212897156494
 40
9.967331237632244
 40
13.36219617164064
 40
13.36219617164064
 40
13.36219617164064
 40
13.36219617164064
 10
491.8578078964192
 20
-224.5074439035744
 30
0.0
 10
491.8570235496141
 20
-223.412983434905
 30
0.0
 10
491.8554447307882
 20
-221.209912997889
 30
0.0
 10
491.8548745247781
 20
-217.8874691705322
 30
0.0
 10
491.8554807490545
 20
-214.5278644511334
 30
0.0
 10
491.8570428918648
 20
-212.2768705341091
 30
0.0
 10
491.8578282210209
 20
-211.1452491447273
 30
0.0
 11
491.8578078964192
 21
-224.5074439035744
 31
0.0
 11
491.8557511980242
 21
-221.2240623537438
 31
0.0
 11
491.8550705720327
 21
-217.8982317202101
 31
0.0
 11
491.8557643827216
 21
-214.5401134514032
 31
0.0
 11
491.8578282210209
 21
-211.1452491447273
 31
0.0
  0
SPLINE
  5
131D9
330
1E
100
AcDbEntity
  8
DETAIL
  6
CONTINUOUS
100
AcDbSpline
210
0.0
220
0.0
230
1.0
 70
     8
 71
     3
 72
     9
 73
     5
 74
     3
 42
0.0000000001
 43
0.0000000001
 44
0.00000001
 40
0.0
 40
0.0
 40
0.0
 40
0.0
 40
6.30972315049338
 40
12.76668929733588
 40
12.76668929733588
 40
12.76668929733588
 40
12.76668929733588
 10
493.0817229624071
 20
-223.255841047003
 30
0.0
 10
493.0825916696485
 20
-221.1526001234365
 30
0.0
 10
493.0843493361842
 20
-216.8970372804708
 30
0.0
 10
493.083530435387
 20
-212.6414741503143
 30
0.0
 10
493.0831162525272
 20
-210.4891520856655
 30
0.0
 11
493.0817229624071
 21
-223.255841047003
 31
0.0
 11
493.0836997051001
 21
-216.9461182061496
 31
0.0
 11
493.0831162525272
 21
-210.4891520856655
 31
0.0
  0
SPLINE
  5
131DA
330
1E
100
AcDbEntity
  8
DETAIL
  6
CONTINUOUS
100
AcDbSpline
210
0.0
220
0.0
230
1.0
 70
     8
 71
     3
 72
    11
 73
     7
 74
     5
 42
0.0000000001
 43
0.0000000001
 44
0.00000001
 40
0.0
 40
0.0
 40
0.0
 40
0.0
 40
3.084033430830996
 40
6.601012120412041
 40
10.16272425035258
 40
13.36207126858338
 40
13.36207126858338
 40
13.36207126858338
 40
13.36207126858338
 10
493.0948112567703
 20
-224.0064252897119
 30
0.0
 10
493.0952829991664
 20
-222.9784142504328
 30
0.0
 10
493.0962926927992
 20
-220.7780771002643
 30
0.0
 10
493.0969196011204
 20
-217.3905023707329
 30
0.0
 10
493.0968994537244
 20
-213.9644897250696
 30
0.0
 10
493.0963050764499
 20
-211.7108034129895
 30
0.0
 10
493.0960238085307
 20
-210.644354440343
 30
0.0
 11
493.0948112567703
 21
-224.0064252897119
 31
0.0
 11
493.096094965359
 21
-220.9223921260475
 31
0.0
 11
493.0968056358897
 21
-217.4054135082661
 31
0.0
 11
493.0967374821475
 21
-213.8437013789754
 31
0.0
 11
493.0960238085307
 21
-210.644354440343
 31
0.0
  0
SPLINE
  5
131DB
330
1E
100
AcDbEntity
  8
DETAIL
  6
CONTINUOUS
100
AcDbSpline
210
0.0
220
0.0
230
1.0
 70
     8
 71
     3
 72
    22
 73
    18
 74
    16
 42
0.0000000001
 43
0.0000000001
 44
0.00000001
 40
0.0
 40
0.0
 40
0.0
 40
0.0
 40
3.290511098499489
 40
6.622415262500193
 40
7.502308194751035
 40
8.340441874861429
 40
9.13192130193833
 40
9.871851474524673
 40
10.55533739036322
 40
11.17748404665453
 40
11.73339644008954
 40
12.21817956690593
 40
12.62693842294199
 40
12.95477800367391
 40
13.19680330425572
 40
13.34811931955585
 40
13.40383104416159
 40
13.40383104416159
 40
13.40383104416159
 40
13.40383104416159
 10
493.5985275877018
 20
-224.2779462736563
 30
0.0
 10
493.5990472792761
 20
-223.181109360893
 30
0.0
 10
493.6000931813656
 20
-220.9736378483698
 30
0.0
 10
493.6006233874942
 20
-218.4728684698225
 30
0.0
 10
493.6007267598939
 20
-216.7895582144459
 30
0.0
 10
493.6007355658747
 20
-215.9530562008591
 30
0.0
 10
493.6007043918395
 20
-215.1632084412741
 30
0.0
 10
493.60064119294
 20
-214.4249099385591
 30
0.0
 10
493.6005532005586
 20
-213.7430556957976
 30
0.0
 10
493.6004478243263
 20
-213.122540716061
 30
0.0
 10
493.6003324324635
 20
-212.5682600024298
 30
0.0
 10
493.6002144036707
 20
-212.0851085579844
 30
0.0
 10
493.6001011137
 20
-211.6779813858115
 30
0.0
 10
493.5999999366343
 20
-211.3517734889989
 30
0.0
 10
493.5999182353052
 20
-211.1113798706465
 30
0.0
 10
493.5998633381719
 20
-210.9616955338642
 30
0.0
 10
493.5998365224937
 20
-210.8926862924385
 30
0.0
 10
493.5998292994471
 20
-210.8741157189744
 30
0.0
 11
493.5985275877018
 21
-224.2779462736563
 31
0.0
 11
493.5999439843426
 21
-220.9874354800033
 31
0.0
 11
493.6006643621358
 21
-217.6555313938862
 31
0.0
 11
493.6007199813966
 21
-216.7756384634214
 31
0.0
 11
493.60072853582
 21
-215.9375047833784
 31
0.0
 11
493.6006974133405
 21
-215.1460253568659
 31
0.0
 11
493.6006340018421
 21
-214.4060951869889
 31
0.0
 11
493.6005456892663
 21
-213.7226092768526
 31
0.0
 11
493.6004398635185
 21
-213.10046262956
 31
0.0
 11
493.6003239125192
 21
-212.5445502482164
 31
0.0
 11
493.6002052241811
 21
-212.0597671359285
 31
0.0
 11
493.6000911864239
 21
-211.6510082957994
 31
0.0
 11
493.599989187146
 21
-211.3231687309346
 31
0.0
 11
493.5999066142967
 21
-211.0811434444388
 31
0.0
 11
493.5998508557521
 21
-210.9298274394169
 31
0.0
 11
493.5998292994471
 21
-210.8741157189744
 31
0.0
  0
LINE
  5
1643E
330
1E
100
AcDbEntity
  8
BASIS
  6
CONTINUOUS
100
AcDbLine
 10
-0.0000005276115189
 20
42.26404912288443
 30
0.0
 11
-0.0000005276115189
 21
-355.1822973342755
 31
0.0
  0
LINE
  5
16440
330
1E
100
AcDbEntity
  8
DETAIL
  6
CONTINUOUS
100
AcDbLine
 10
-516.8326499999939
 20
-0.0000000000004547
 30
0.0
 11
465.0345000000043
 21
-0.0000000000004547
 31
0.0
  0
LINE
  5
16441
330
1E
100
AcDbEntity
  8
DETAIL
  6
CONTINUOUS
100
AcDbLine
 10
-576.9225000000013
 20
-5.000000000000453
 30
0.0
 11
576.9225000000013
 21
-5.000000000000453
 31
0.0
  0
ARC
  5
165AD
330
1E
100
AcDbEntity
  8
DETAIL
  6
CONTINUOUS
100
AcDbCircle
 10
492.0136876440911
 20
-224.0965784033446
 30
0.0
 40
1.59518398664101
100
AcDbArc
 50
265.7213307530216
 51
353.4715157316776
  0
ARC
  5
165AE
330
1E
100
AcDbEntity
  8
DETAIL
  6
CONTINUOUS
100
AcDbCircle
 10
491.9771750650278
 20
-223.8977386207098
 30
0.0
 40
1.12290847762523
100
AcDbArc
 50
265.8290232725763
 51
354.4456275622468
  0
ARC
  5
165AF
330
1E
100
AcDbEntity
  8
DETAIL
  6
CONTINUOUS
100
AcDbCircle
 10
491.8619366852335
 20
-223.9775442032974
 30
0.0
 40
0.9936988818732851
100
AcDbArc
 50
269.7619369885039
 51
359.0100094794682
  0
ARC
  5
165B0
330
1E
100
AcDbEntity
  8
DETAIL
  6
CONTINUOUS
100
AcDbCircle
 10
492.020678114707
 20
-223.5973440935771
 30
0.0
 40
0.92455847417124
100
AcDbArc
 50
259.8538301564875
 51
334.5455611364436
  0
ARC
  5
165B1
330
1E
100
AcDbEntity
  8
DETAIL
  6
CONTINUOUS
100
AcDbCircle
 10
468.2333003339271
 20
-224.0965793180671
 30
0.0
 40
1.595183063648706
100
AcDbArc
 50
186.5284201292636
 51
274.2787360936595
  0
ARC
  5
165B2
330
1E
100
AcDbEntity
  8
DETAIL
  6
CONTINUOUS
100
AcDbCircle
 10
468.2698135852088
 20
-223.8977380716846
 30
0.0
 40
1.122908970229457
100
AcDbArc
 50
185.5543969435306
 51
274.170952188513
  0
ARC
  5
165B3
330
1E
100
AcDbEntity
  8
DETAIL
  6
CONTINUOUS
100
AcDbCircle
 10
468.2230280909926
 20
-223.6119135338085
 30
0.0
 40
0.9108135584872739
100
AcDbArc
 50
203.9029934942754
 51
280.510852666875
  0
ARC
  5
165B4
330
1E
100
AcDbEntity
  8
DETAIL
  6
CONTINUOUS
100
AcDbCircle
 10
468.3571302635873
 20
-223.9889420143903
 30
0.0
 40
0.9668306948781587
100
AcDbArc
 50
179.5272943103386
 51
271.8996799183008
  0
ARC
  5
165B5
330
1E
100
AcDbEntity
  8
DETAIL
  6
CONTINUOUS
100
AcDbCircle
 10
491.9844359859061
 20
-210.9967332861109
 30
0.0
 40
1.620040315921055
100
AcDbArc
 50
4.340752596018078
 51
93.12755693710377
  0
ARC
  5
165B6
330
1E
100
AcDbEntity
  8
DETAIL
  6
CONTINUOUS
100
AcDbCircle
 10
491.9534516851153
 20
-210.7227260329394
 30
0.0
 40
1.145256811259343
100
AcDbArc
 50
3.923900278690517
 51
94.37626526070879
  0
ARC
  5
165B7
330
1E
100
AcDbEntity
  8
DETAIL
  6
CONTINUOUS
100
AcDbCircle
 10
491.9122472014705
 20
-210.7663987881715
 30
0.0
 40
0.947541591192455
100
AcDbArc
 50
4.645459123839641
 51
93.29240920265126
  0
ARC
  5
165B8
330
1E
100
AcDbEntity
  8
DETAIL
  6
CONTINUOUS
100
AcDbCircle
 10
468.2625528458983
 20
-210.9967341561628
 30
0.0
 40
1.620041419212095
100
AcDbArc
 50
86.87247026689362
 51
175.6591709566101
  0
ARC
  5
165B9
330
1E
100
AcDbEntity
  8
DETAIL
  6
CONTINUOUS
100
AcDbCircle
 10
468.2935364568938
 20
-210.7227259903329
 30
0.0
 40
1.145256742992093
100
AcDbArc
 50
85.62373099477056
 51
176.0761030981854
  0
ARC
  5
165BA
330
1E
100
AcDbEntity
  8
DETAIL
  6
CONTINUOUS
100
AcDbCircle
 10
468.3347410089236
 20
-210.7663987882646
 30
0.0
 40
0.9475415912811023
100
AcDbArc
 50
86.7075908000867
 51
175.3545408427864
  0
ARC
  5
165BB
330
1E
100
AcDbEntity
  8
DETAIL
  6
CONTINUOUS
100
AcDbCircle
 10
490.4873788718949
 20
-231.5462038965829
 30
0.0
 40
1.407122986995001
100
AcDbArc
 50
265.3318294377671
 51
350.8717534812835
  0
ARC
  5
165BC
330
1E
100
AcDbEntity
  8
DETAIL
  6
CONTINUOUS
100
AcDbCircle
 10
490.4961218822909
 20
-230.8669949374384
 30
0.0
 40
1.384214943994039
100
AcDbArc
 50
3.677102428804078
 51
95.01333546561864
  0
ARC
  5
165BD
330
1E
100
AcDbEntity
  8
DETAIL
  6
CONTINUOUS
100
AcDbCircle
 10
485.1355232156811
 20
-230.8670611859706
 30
0.0
 40
1.384275969063162
100
AcDbArc
 50
84.98924988676634
 51
176.3203121613109
  0
ARC
  5
165BE
330
1E
100
AcDbEntity
  8
DETAIL
  6
CONTINUOUS
100
AcDbCircle
 10
485.1442093301439
 20
-231.5462039015209
 30
0.0
 40
1.407122982153284
100
AcDbArc
 50
189.1282463553725
 51
274.6681706865286
  0
LINE
  5
165BF
330
1E
100
AcDbEntity
  8
DETAIL
  6
CONTINUOUS
100
AcDbLine
 10
483.7541010240265
 20
-230.7782203904739
 30
0.0
 11
483.7549065528937
 21
-231.7694366948785
 31
0.0
  0
LINE
  5
165C0
330
1E
100
AcDbEntity
  8
DETAIL
  6
CONTINUOUS
100
AcDbLine
 10
491.8774871819396
 20
-230.7782203909559
 30
0.0
 11
491.8766816532852
 21
-231.7694366946775
 31
0.0
  0
ARC
  5
165C1
330
1E
100
AcDbEntity
  8
DETAIL
  6
CONTINUOUS
100
AcDbCircle
 10
490.4497897558221
 20
-230.5854731614775
 30
0.0
 40
0.9305107818106012
100
AcDbArc
 50
6.344366548924965
 51
94.52126527238077
  0
LINE
  5
165C2
330
1E
100
AcDbEntity
  8
DETAIL
  6
CONTINUOUS
100
AcDbLine
 10
491.3746017970015
 20
-230.4826480499822
 30
0.0
 11
491.3736024896869
 21
-231.4723694309928
 31
0.0
  0
ARC
  5
165C3
330
1E
100
AcDbEntity
  8
DETAIL
  6
CONTINUOUS
100
AcDbCircle
 10
490.3746897800656
 20
-231.3640922550248
 30
0.0
 40
1.004763926672276
100
AcDbArc
 50
264.9830396306118
 51
353.8135757261553
  0
LINE
  5
165C4
330
1E
100
AcDbEntity
  8
DETAIL
  6
CONTINUOUS
100
AcDbLine
 10
490.289209348245
 20
-229.6578579942461
 30
0.0
 11
490.289209348245
 21
-232.3652134485464
 31
0.0
  0
LINE
  5
165C5
330
1E
100
AcDbEntity
  8
DETAIL
  6
CONTINUOUS
100
AcDbLine
 10
485.3423788537792
 20
-229.6578579942428
 30
0.0
 11
485.3447656691995
 21
-232.365006786504
 31
0.0
  0
LINE
  5
165C6
330
1E
100
AcDbEntity
  8
DETAIL
  6
CONTINUOUS
100
AcDbLine
 10
490.3751586569715
 20
-229.4880754657883
 30
0.0
 11
490.376438432816
 21
-229.6578579942456
 31
0.0
  0
LINE
  5
165C7
330
1E
100
AcDbEntity
  8
DETAIL
  6
CONTINUOUS
100
AcDbLine
 10
490.3736712958006
 20
-232.3688556655009
 30
0.0
 11
490.3728603989866
 21
-232.9486591079507
 31
0.0
  0
LINE
  5
165C8
330
1E
100
AcDbEntity
  8
DETAIL
  6
CONTINUOUS
100
AcDbLine
 10
485.2564295500768
 20
-229.4880754656563
 30
0.0
 11
485.25514977321
 21
-229.6578579942428
 31
0.0
  0
LINE
  5
165C9
330
1E
100
AcDbEntity
  8
DETAIL
  6
CONTINUOUS
100
AcDbLine
 10
485.2579080277491
 20
-232.3625046708662
 30
0.0
 11
485.2587278056861
 21
-232.9486591078161
 31
0.0
  0
ARC
  5
165CA
330
1E
100
AcDbEntity
  8
DETAIL
  6
CONTINUOUS
100
AcDbCircle
 10
485.1817773379051
 20
-230.5854476113104
 30
0.0
 40
0.9304869757027503
100
AcDbArc
 50
85.47731473956755
 51
173.6570534394511
  0
ARC
  5
165CB
330
1E
100
AcDbEntity
  8
DETAIL
  6
CONTINUOUS
100
AcDbCircle
 10
485.2586330694674
 20
-231.3619803402084
 30
0.0
 40
1.00671787344073
100
AcDbArc
 50
186.2952817735921
 51
274.9081032063811
  0
LINE
  5
165CC
330
1E
100
AcDbEntity
  8
DETAIL
  6
CONTINUOUS
100
AcDbLine
 10
484.2579857163282
 20
-231.4723694309709
 30
0.0
 11
484.256986409021
 21
-230.4826480499936
 31
0.0
  0
LINE
  5
165CD
330
1E
100
AcDbEntity
  8
DETAIL
  6
CONTINUOUS
100
AcDbLine
 10
484.3464244409323
 20
-231.4024296743669
 30
0.0
 11
484.3459062241372
 21
-230.5973918944367
 31
0.0
  0
ARC
  5
165CE
330
1E
100
AcDbEntity
  8
DETAIL
  6
CONTINUOUS
100
AcDbCircle
 10
485.2900316455806
 20
-230.6724796593075
 30
0.0
 40
0.9471066382874909
100
AcDbArc
 50
86.82792584266429
 51
175.4527486747402
  0
ARC
  5
165CF
330
1E
100
AcDbEntity
  8
DETAIL
  6
CONTINUOUS
100
AcDbCircle
 10
485.1889396414581
 20
-231.0346779315176
 30
0.0
 40
0.9192786343032087
100
AcDbArc
 50
203.580918337258
 51
279.7592741413871
  0
ARC
  5
165D0
330
1E
100
AcDbEntity
  8
DETAIL
  6
CONTINUOUS
100
AcDbCircle
 10
490.3415616183564
 20
-230.6724772441689
 30
0.0
 40
0.9471014015391819
100
AcDbArc
 50
4.547130454288542
 51
93.16871428736241
  0
ARC
  5
165D1
330
1E
100
AcDbEntity
  8
DETAIL
  6
CONTINUOUS
100
AcDbCircle
 10
490.4498390199523
 20
-231.0623985852866
 30
0.0
 40
0.8927460021185172
100
AcDbArc
 50
259.6344555547513
 51
339.4304038991958
  0
LINE
  5
165D2
330
1E
100
AcDbEntity
  8
DETAIL
  6
CONTINUOUS
100
AcDbLine
 10
491.2856689899081
 20
-231.3760603230125
 30
0.0
 11
491.285681977929
 21
-230.5973918831254
 31
0.0
  0
LINE
  5
165D3
330
1E
100
AcDbEntity
  8
DETAIL
  6
CONTINUOUS
100
AcDbLine
 10
477.7955983682703
 20
-231.3760603230976
 30
0.0
 11
477.7956113562914
 21
-230.5973918832104
 31
0.0
  0
ARC
  5
165D4
330
1E
100
AcDbEntity
  8
DETAIL
  6
CONTINUOUS
100
AcDbCircle
 10
476.9597683983146
 20
-231.062398585372
 30
0.0
 40
0.8927460021185172
100
AcDbArc
 50
259.6344555547513
 51
339.4304038991958
  0
ARC
  5
165D5
330
1E
100
AcDbEntity
  8
DETAIL
  6
CONTINUOUS
100
AcDbCircle
 10
476.8514909967189
 20
-230.6724772442539
 30
0.0
 40
0.9471014015391819
100
AcDbArc
 50
4.547130454288542
 51
93.16871428736241
  0
ARC
  5
165D6
330
1E
100
AcDbEntity
  8
DETAIL
  6
CONTINUOUS
100
AcDbCircle
 10
471.6988690198204
 20
-231.0346779316028
 30
0.0
 40
0.9192786343032087
100
AcDbArc
 50
203.580918337258
 51
279.7592741413871
  0
ARC
  5
165D7
330
1E
100
AcDbEntity
  8
DETAIL
  6
CONTINUOUS
100
AcDbCircle
 10
471.799961023943
 20
-230.672479659393
 30
0.0
 40
0.9471066382874909
100
AcDbArc
 50
86.82792584266429
 51
175.4527486747402
  0
LINE
  5
165D8
330
1E
100
AcDbEntity
  8
DETAIL
  6
CONTINUOUS
100
AcDbLine
 10
470.8563538192946
 20
-231.4024296744514
 30
0.0
 11
470.8558356024996
 21
-230.5973918945214
 31
0.0
  0
LINE
  5
165D9
330
1E
100
AcDbEntity
  8
DETAIL
  6
CONTINUOUS
100
AcDbLine
 10
470.7679150946906
 20
-231.4723694310554
 30
0.0
 11
470.7669157873834
 21
-230.4826480500786
 31
0.0
  0
ARC
  5
165DA
330
1E
100
AcDbEntity
  8
DETAIL
  6
CONTINUOUS
100
AcDbCircle
 10
471.7685624478298
 20
-231.3619803402934
 30
0.0
 40
1.00671787344073
100
AcDbArc
 50
186.2952817735921
 51
274.9081032063811
  0
ARC
  5
165DB
330
1E
100
AcDbEntity
  8
DETAIL
  6
CONTINUOUS
100
AcDbCircle
 10
471.6917067162675
 20
-230.5854476113954
 30
0.0
 40
0.9304869757027503
100
AcDbArc
 50
85.47731473956755
 51
173.6570534394511
  0
LINE
  5
165DC
330
1E
100
AcDbEntity
  8
DETAIL
  6
CONTINUOUS
100
AcDbLine
 10
471.7678374061115
 20
-232.3625046709512
 30
0.0
 11
471.7686571840486
 21
-232.9486591079007
 31
0.0
  0
LINE
  5
165DD
330
1E
100
AcDbEntity
  8
DETAIL
  6
CONTINUOUS
100
AcDbLine
 10
471.7663589284393
 20
-229.4880754657415
 30
0.0
 11
471.7650791515724
 21
-229.6578579943284
 31
0.0
  0
LINE
  5
165DE
330
1E
100
AcDbEntity
  8
DETAIL
  6
CONTINUOUS
100
AcDbLine
 10
476.8836006741629
 20
-232.3688556655861
 30
0.0
 11
476.882789777349
 21
-232.9486591080358
 31
0.0
  0
LINE
  5
165DF
330
1E
100
AcDbEntity
  8
DETAIL
  6
CONTINUOUS
100
AcDbLine
 10
476.8850880353339
 20
-229.4880754658729
 30
0.0
 11
476.8863678111784
 21
-229.6578579943302
 31
0.0
  0
LINE
  5
165E0
330
1E
100
AcDbEntity
  8
DETAIL
  6
CONTINUOUS
100
AcDbLine
 10
471.8523082321417
 20
-229.6578579943284
 30
0.0
 11
471.8546950475619
 21
-232.3650067865891
 31
0.0
  0
LINE
  5
165E1
330
1E
100
AcDbEntity
  8
DETAIL
  6
CONTINUOUS
100
AcDbLine
 10
476.7991387266073
 20
-229.657857994331
 30
0.0
 11
476.7991387266073
 21
-232.3652134486315
 31
0.0
  0
ARC
  5
165E2
330
1E
100
AcDbEntity
  8
DETAIL
  6
CONTINUOUS
100
AcDbCircle
 10
476.8846191584279
 20
-231.3640922551098
 30
0.0
 40
1.004763926672276
100
AcDbArc
 50
264.9830396306118
 51
353.8135757261553
  0
LINE
  5
165E3
330
1E
100
AcDbEntity
  8
DETAIL
  6
CONTINUOUS
100
AcDbLine
 10
477.8845311753638
 20
-230.4826480500673
 30
0.0
 11
477.8835318680493
 21
-231.4723694310773
 31
0.0
  0
ARC
  5
165E4
330
1E
100
AcDbEntity
  8
DETAIL
  6
CONTINUOUS
100
AcDbCircle
 10
476.9597191341844
 20
-230.5854731615631
 30
0.0
 40
0.9305107818106012
100
AcDbArc
 50
6.344366548924965
 51
94.52126527238077
  0
LINE
  5
165E5
330
1E
100
AcDbEntity
  8
DETAIL
  6
CONTINUOUS
100
AcDbLine
 10
478.387416560302
 20
-230.7782203910409
 30
0.0
 11
478.3866110316474
 21
-231.769436694762
 31
0.0
  0
LINE
  5
165E6
330
1E
100
AcDbEntity
  8
DETAIL
  6
CONTINUOUS
100
AcDbLine
 10
470.2640304023888
 20
-230.7782203905585
 30
0.0
 11
470.264835931256
 21
-231.7694366949635
 31
0.0
  0
ARC
  5
165E7
330
1E
100
AcDbEntity
  8
DETAIL
  6
CONTINUOUS
100
AcDbCircle
 10
471.6541387085061
 20
-231.5462039016059
 30
0.0
 40
1.407122982153284
100
AcDbArc
 50
189.1282463553725
 51
274.6681706865286
  0
ARC
  5
165E8
330
1E
100
AcDbEntity
  8
DETAIL
  6
CONTINUOUS
100
AcDbCircle
 10
471.6454525940434
 20
-230.8670611860556
 30
0.0
 40
1.384275969063162
100
AcDbArc
 50
84.98924988676634
 51
176.3203121613109
  0
ARC
  5
165E9
330
1E
100
AcDbEntity
  8
DETAIL
  6
CONTINUOUS
100
AcDbCircle
 10
477.0060512606533
 20
-230.8669949375239
 30
0.0
 40
1.384214943994039
100
AcDbArc
 50
3.677102428804078
 51
95.01333546561864
  0
ARC
  5
165EA
330
1E
100
AcDbEntity
  8
DETAIL
  6
CONTINUOUS
100
AcDbCircle
 10
476.9973082502573
 20
-231.5462038966684
 30
0.0
 40
1.407122986995001
100
AcDbArc
 50
265.3318294377671
 51
350.8717534812835
  0
LINE
  5
165EB
330
1E
100
AcDbEntity
  8
DETAIL
  6
CONTINUOUS
100
AcDbLine
 10
476.8850880353648
 20
-229.4880754658729
 30
0.0
 11
471.7663589284228
 21
-229.4880754657415
 31
0.0
  0
LINE
  5
165EC
330
1E
100
AcDbEntity
  8
DETAIL
  6
CONTINUOUS
100
AcDbLine
 10
476.8863678111746
 20
-229.657857994331
 30
0.0
 11
471.7650791515724
 21
-229.6578579943284
 31
0.0
  0
LINE
  5
165ED
330
1E
100
AcDbEntity
  8
DETAIL
  6
CONTINUOUS
100
AcDbLine
 10
476.882789777358
 20
-232.9486591080358
 30
0.0
 11
471.7686571840557
 21
-232.9486591079007
 31
0.0
  0
LINE
  5
165EE
330
1E
100
AcDbEntity
  8
DETAIL
  6
CONTINUOUS
100
AcDbLine
 10
476.7967519232779
 20
-231.9406533487954
 30
0.0
 11
471.8546950475511
 21
-231.9406533487998
 31
0.0
  0
LINE
  5
165EF
330
1E
100
AcDbEntity
  8
DETAIL
  6
CONTINUOUS
100
AcDbLine
 10
476.796764911297
 20
-231.1578320110079
 30
0.0
 11
471.8546820474776
 21
-231.1578320110079
 31
0.0
  0
LINE
  5
165F0
330
1E
100
AcDbEntity
  8
DETAIL
  6
CONTINUOUS
100
AcDbLine
 10
476.796764911297
 20
-229.7268364947372
 30
0.0
 11
471.8546820474776
 21
-229.7268364947372
 31
0.0
  0
SPLINE
  5
165F1
330
1E
100
AcDbEntity
  8
DETAIL
  6
CONTINUOUS
100
AcDbSpline
210
0.0
220
0.0
230
1.0
 70
     8
 71
     3
 72
    11
 73
     7
 74
     5
 42
0.0000000001
 43
0.0000000001
 44
0.00000001
 40
0.0
 40
0.0
 40
0.0
 40
0.0
 40
1.235514218937948
 40
2.471028437864298
 40
3.706542656790705
 40
4.94205687571382
 40
4.94205687571382
 40
4.94205687571382
 40
4.94205687571382
 10
471.8546950475619
 20
-232.365006786589
 30
0.0
 10
472.2665331205393
 20
-232.3650081129372
 30
0.0
 10
473.0902092664906
 20
-232.3650107406337
 30
0.0
 10
474.3257234854217
 20
-232.3650103952098
 30
0.0
 10
475.5612377043481
 20
-232.3650107406951
 30
0.0
 10
476.3849138502944
 20
-232.3650081122918
 30
0.0
 10
476.7967519232669
 20
-232.3650067855903
 30
0.0
 11
471.8546950475619
 21
-232.365006786589
 31
0.0
 11
473.0902092664955
 21
-232.365010036139
 31
0.0
 11
474.3257234854218
 21
-232.3650105003614
 31
0.0
 11
475.5612377043481
 21
-232.3650100360134
 31
0.0
 11
476.7967519232669
 21
-232.3650067855903
 31
0.0
  0
ARC
  5
165F2
330
1E
100
AcDbEntity
  8
DETAIL
  6
CONTINUOUS
100
AcDbCircle
 10
-507.8121097364063
 20
-147.4655023933614
 30
0.0
 40
5.752667556740946
100
AcDbArc
 50
87.04529492968777
 51
171.9618825342221
  0
LINE
  5
165F3
330
1E
100
AcDbEntity
  8
DETAIL
  6
CONTINUOUS
100
AcDbLine
 10
-487.3591835925371
 20
-141.7204897166456
 30
0.0
 11
-487.4304082138068
 21
-133.5589565102417
 31
0.0
  0
LINE
  5
165F4
330
1E
100
AcDbEntity
  8
DETAIL
  6
CONTINUOUS
100
AcDbLine
 10
-502.5785917861893
 20
-133.5589565102417
 30
0.0
 11
-502.6498163440527
 21
-141.720482452089
 31
0.0
  0
ARC
  5
165F5
330
1E
100
AcDbEntity
  8
DETAIL
  6
CONTINUOUS
100
AcDbCircle
 10
-491.8135005073336
 20
-245.4966253909283
 30
0.0
 40
22.65850309873564
100
AcDbArc
 50
173.7124940958987
 51
209.7991417725534
  0
ARC
  5
165F6
330
1E
100
AcDbEntity
  8
DETAIL
  6
CONTINUOUS
100
AcDbCircle
 10
509.6638584872788
 20
-255.890117030523
 30
0.0
 40
1.018885923883259
100
AcDbArc
 50
300.4167378371321
 51
9.694107987464047
  0
LINE
  5
165F7
330
1E
100
AcDbEntity
  8
DETAIL
  6
CONTINUOUS
100
AcDbLine
 10
343.3730144164936
 20
-146.3200087068184
 30
0.0
 11
344.3541564345696
 21
-249.9786955337345
 31
0.0
  0
ARC
  5
165F8
330
1E
100
AcDbEntity
  8
DETAIL
  6
CONTINUOUS
100
AcDbCircle
 10
346.9561341123926
 20
-247.9181492365746
 30
0.0
 40
3.319056926401668
100
AcDbArc
 50
218.3762464494822
 51
275.1594468946289
  0
ARC
  5
165F9
330
1E
100
AcDbEntity
  8
DETAIL
  6
CONTINUOUS
100
AcDbCircle
 10
346.9414623430484
 20
-248.6553837272317
 30
0.0
 40
2.906080866264716
100
AcDbArc
 50
207.0880735935527
 51
276.2884558741196
  0
LINE
  5
165FA
330
1E
100
AcDbEntity
  8
DETAIL
  6
CONTINUOUS
100
AcDbLine
 10
346.3644212726058
 20
-146.6181075396221
 30
0.0
 11
347.2597771285227
 21
-251.5439788353454
 31
0.0
  0
LINE
  5
165FB
330
1E
100
AcDbEntity
  8
DETAIL
  6
CONTINUOUS
100
AcDbLine
 10
509.0042851222396
 20
-179.443780109031
 30
0.0
 11
509.7041485455638
 21
-250.8835773346809
 31
0.0
  0
ARC
  5
165FC
330
1E
100
AcDbEntity
  8
DETAIL
  6
CONTINUOUS
100
AcDbCircle
 10
509.2645356639905
 20
-250.7748299807267
 30
0.0
 40
0.4528636358073721
100
AcDbArc
 50
262.4047734564305
 51
346.1056292248938
  0
ARC
  5
165FD
330
1E
100
AcDbEntity
  8
DETAIL
  6
CONTINUOUS
100
AcDbCircle
 10
509.1921500499966
 20
-251.0155196816636
 30
0.0
 40
0.5287260561059455
100
AcDbArc
 50
271.8253377698225
 51
14.4507463177142
  0
ARC
  5
165FE
330
1E
100
AcDbEntity
  8
DETAIL
  6
CONTINUOUS
100
AcDbCircle
 10
508.5027621039053
 20
-179.4482880054224
 30
0.0
 40
0.5015432773457402
100
AcDbArc
 50
0.514984303612307
 51
90.00107962784657
  0
ARC
  5
16600
330
1E
100
AcDbEntity
  8
DETAIL
  6
CONTINUOUS
100
AcDbCircle
 10
338.8991764275659
 20
-250.9561043582298
 30
0.0
 40
0.2686388561753346
100
AcDbArc
 50
261.7869082243213
 51
346.5983188576974
  0
ARC
  5
16601
330
1E
100
AcDbEntity
  8
DETAIL
  6
CONTINUOUS
100
AcDbCircle
 10
338.8607999999957
 20
-251.2425565063913
 30
0.0
 40
0.2996999999995751
100
AcDbArc
 50
269.9999999996523
 51
0.0000000001086732
  0
ARC
  5
16602
330
1E
100
AcDbEntity
  8
DETAIL
  6
CONTINUOUS
100
AcDbCircle
 10
-505.7289011201691
 20
-250.9512806688531
 30
0.0
 40
0.272973480751509
100
AcDbArc
 50
194.2290556004318
 51
277.3880071759514
  0
ARC
  5
16603
330
1E
100
AcDbEntity
  8
DETAIL
  6
CONTINUOUS
100
AcDbCircle
 10
-505.6938000071814
 20
-251.2425565135695
 30
0.0
 40
0.2996999928208198
100
AcDbArc
 50
180.0000014036459
 51
270.0000013743045
  0
ARC
  5
16604
330
1E
100
AcDbEntity
  8
DETAIL
  6
CONTINUOUS
100
AcDbCircle
 10
340.9410941505675
 20
-147.1402758890921
 30
0.0
 40
5.448406818311468
100
AcDbArc
 50
5.499595350316154
 51
95.83510351437089
  0
ARC
  5
16605
330
1E
100
AcDbEntity
  8
DETAIL
  6
CONTINUOUS
100
AcDbCircle
 10
340.505059308979
 20
-146.392134085196
 30
0.0
 40
2.868861894408095
100
AcDbArc
 50
359.6439790376106
 51
92.52783792668379
  0
LINE
  5
16606
330
1E
100
AcDbEntity
  8
DETAIL
  6
CONTINUOUS
100
AcDbLine
 10
340.3871774383578
 20
-141.7200994036114
 30
0.0
 11
-91.06181634405677
 21
-141.7204824526311
 31
0.0
  0
LINE
  5
16607
330
1E
100
AcDbEntity
  8
DETAIL
  6
CONTINUOUS
100
AcDbLine
 10
340.3785287769778
 20
-143.5260638498989
 30
0.0
 11
-507.5155799863431
 21
-143.5260485609906
 31
0.0
  0
ARC
  5
16608
330
1E
100
AcDbEntity
  8
DETAIL
  6
CONTINUOUS
100
AcDbCircle
 10
-507.6360084844991
 20
-146.4000158024391
 30
0.0
 40
2.876489306099355
100
AcDbArc
 50
87.6005257553157
 51
178.3976213811832
  0
ARC
  5
16609
330
1E
100
AcDbEntity
  8
DETAIL
  6
CONTINUOUS
100
AcDbCircle
 10
-513.9653331075924
 20
-240.2984146405128
 30
0.0
 40
2.741837732509375
100
AcDbArc
 50
262.2365640950848
 51
343.3562367062417
  0
ARC
  5
1660A
330
1E
100
AcDbEntity
  8
DETAIL
  6
CONTINUOUS
100
AcDbCircle
 10
-89.11598563022835
 20
-134.258256510242
 30
0.0
 40
0.2996999999998975
100
AcDbArc
 50
180.9999999999622
 51
270.0
  0
LINE
  5
1660B
330
1E
100
AcDbEntity
  8
DETAIL
  6
CONTINUOUS
100
AcDbLine
 10
-89.41563998446964
 20
-134.2634869964516
 30
0.0
 11
-89.4279376098466
 21
-133.5589565102417
 31
0.0
  0
LINE
  5
1660C
330
1E
100
AcDbEntity
  8
DETAIL
  6
CONTINUOUS
100
AcDbLine
 10
-77.41736001550179
 20
-134.263486996453
 30
0.0
 11
-77.40506239012302
 21
-133.5589565102417
 31
0.0
  0
ARC
  5
1660D
330
1E
100
AcDbEntity
  8
DETAIL
  6
CONTINUOUS
100
AcDbCircle
 10
-77.71701436974308
 20
-134.258256510242
 30
0.0
 40
0.2997000000001541
100
AcDbArc
 50
270.0
 51
358.9999999998423
  0
LINE
  5
1660E
330
1E
100
AcDbEntity
  8
DETAIL
  6
CONTINUOUS
100
AcDbLine
 10
-90.99059178618244
 20
-133.5589565102417
 30
0.0
 11
-91.06181634404585
 21
-141.720482452089
 31
0.0
  0
LINE
  5
1660F
330
1E
100
AcDbEntity
  8
DETAIL
  6
CONTINUOUS
100
AcDbLine
 10
-75.77118359253018
 20
-141.7204897166456
 30
0.0
 11
-75.8424082137999
 21
-133.5589565102417
 31
0.0
  0
LINE
  5
16610
330
1E
100
AcDbEntity
  8
DETAIL
  6
CONTINUOUS
100
AcDbLine
 10
-77.71701436974308
 20
-134.5579565102424
 30
0.0
 11
-89.11598563022835
 21
-134.5579565102424
 31
0.0
  0
LINE
  5
16611
330
1E
100
AcDbEntity
  8
DETAIL
  6
CONTINUOUS
100
AcDbLine
 10
-75.8424082137999
 20
-133.5589565102417
 30
0.0
 11
-90.99059178618244
 21
-133.5589565102417
 31
0.0
  0
ARC
  5
16612
330
1E
100
AcDbEntity
  8
DETAIL
  6
CONTINUOUS
100
AcDbCircle
 10
322.4720143697658
 20
-134.258256510242
 30
0.0
 40
0.2996999999998975
100
AcDbArc
 50
180.9999999999622
 51
270.0
  0
LINE
  5
16613
330
1E
100
AcDbEntity
  8
DETAIL
  6
CONTINUOUS
100
AcDbLine
 10
322.1723600155246
 20
-134.2634869964516
 30
0.0
 11
322.1600623901476
 21
-133.5589565102417
 31
0.0
  0
LINE
  5
16614
330
1E
100
AcDbEntity
  8
DETAIL
  6
CONTINUOUS
100
AcDbLine
 10
334.1706399844925
 20
-134.263486996453
 30
0.0
 11
334.1829376098711
 21
-133.5589565102417
 31
0.0
  0
ARC
  5
16615
330
1E
100
AcDbEntity
  8
DETAIL
  6
CONTINUOUS
100
AcDbCircle
 10
333.8709856302512
 20
-134.258256510242
 30
0.0
 40
0.2997000000001541
100
AcDbArc
 50
270.0
 51
358.9999999998423
  0
LINE
  5
16616
330
1E
100
AcDbEntity
  8
DETAIL
  6
CONTINUOUS
100
AcDbLine
 10
320.5974082138117
 20
-133.5589565102417
 30
0.0
 11
320.5261836559484
 21
-141.720482452089
 31
0.0
  0
LINE
  5
16617
330
1E
100
AcDbEntity
  8
DETAIL
  6
CONTINUOUS
100
AcDbLine
 10
335.8168164074641
 20
-141.7204897166456
 30
0.0
 11
335.7455917861944
 21
-133.5589565102417
 31
0.0
  0
LINE
  5
16618
330
1E
100
AcDbEntity
  8
DETAIL
  6
CONTINUOUS
100
AcDbLine
 10
333.8709856302512
 20
-134.5579565102424
 30
0.0
 11
322.4720143697658
 21
-134.5579565102424
 31
0.0
  0
LINE
  5
16619
330
1E
100
AcDbEntity
  8
DETAIL
  6
CONTINUOUS
100
AcDbLine
 10
335.7455917861944
 20
-133.5589565102417
 30
0.0
 11
320.5974082138117
 21
-133.5589565102417
 31
0.0
  0
LINE
  5
1661A
330
1E
100
AcDbEntity
  8
DETAIL
  6
CONTINUOUS
100
AcDbLine
 10
280.7102825229911
 20
-172.7716500331325
 30
0.0
 11
281.7267174770158
 21
-172.7716500331325
 31
0.0
  0
ARC
  5
1661B
330
1E
100
AcDbEntity
  8
DETAIL
  6
CONTINUOUS
100
AcDbCircle
 10
280.6210844457444
 20
-171.8702114129705
 30
0.0
 40
0.9058409810246523
100
AcDbArc
 50
189.9314979901563
 51
275.6510677296061
  0
ARC
  5
1661C
330
1E
100
AcDbEntity
  8
DETAIL
  6
CONTINUOUS
100
AcDbCircle
 10
281.8159161463581
 20
-171.8702128977079
 30
0.0
 40
0.9058395618070807
100
AcDbArc
 50
264.3488857532338
 51
350.0688060595861
  0
ARC
  5
1661D
330
1E
100
AcDbEntity
  8
DETAIL
  6
CONTINUOUS
100
AcDbCircle
 10
278.012155154426
 20
-170.6488029545348
 30
0.0
 40
1.873736533556753
100
AcDbArc
 50
336.3648900348446
 51
357.9311523667779
  0
ARC
  5
1661E
330
1E
100
AcDbEntity
  8
DETAIL
  6
CONTINUOUS
100
AcDbCircle
 10
284.4248483457148
 20
-170.6488018148584
 30
0.0
 40
1.873740197001145
100
AcDbArc
 50
182.0688695259963
 51
203.6350989826336
  0
ARC
  5
1661F
330
1E
100
AcDbEntity
  8
DETAIL
  6
CONTINUOUS
100
AcDbCircle
 10
291.0542406921766
 20
-145.2418089965075
 30
0.0
 40
9.33756323541516
100
AcDbArc
 50
181.1508954655483
 51
198.8505178721118
  0
ARC
  5
16620
330
1E
100
AcDbEntity
  8
DETAIL
  6
CONTINUOUS
100
AcDbCircle
 10
271.4162322373566
 20
-145.2503138849891
 30
0.0
 40
9.303138114700622
100
AcDbArc
 50
341.1324446327767
 51
359.4887518888008
  0
ARC
  5
16621
330
1E
100
AcDbEntity
  8
DETAIL
  6
CONTINUOUS
100
AcDbCircle
 10
281.7892639857244
 20
-171.5814094999086
 30
0.0
 40
0.4411333751892939
100
AcDbArc
 50
261.8487961061412
 51
346.1111293280362
  0
ARC
  5
16622
330
1E
100
AcDbEntity
  8
DETAIL
  6
CONTINUOUS
100
AcDbCircle
 10
280.6477901121516
 20
-171.5813708402914
 30
0.0
 40
0.4411958765896994
100
AcDbArc
 50
193.8924280315769
 51
278.1724350940846
  0
ARC
  5
16623
330
1E
100
AcDbEntity
  8
DETAIL
  6
CONTINUOUS
100
AcDbCircle
 10
279.7765103955597
 20
-171.5709062805444
 30
0.0
 40
0.4580258955822921
100
AcDbArc
 50
264.0231618623662
 51
345.2782887542624
  0
ARC
  5
16624
330
1E
100
AcDbEntity
  8
DETAIL
  6
CONTINUOUS
100
AcDbCircle
 10
282.6604892431305
 20
-171.5709031193591
 30
0.0
 40
0.4580256036283231
100
AcDbArc
 50
194.7217501057241
 51
275.9768903239495
  0
LINE
  5
16625
330
1E
100
AcDbEntity
  8
DETAIL
  6
CONTINUOUS
100
AcDbLine
 10
279.7286762809807
 20
-162.3094848337936
 30
0.0
 11
279.8846703296776
 21
-170.7164455124434
 31
0.0
  0
LINE
  5
16626
330
1E
100
AcDbEntity
  8
DETAIL
  6
CONTINUOUS
100
AcDbLine
 10
282.708325108425
 20
-162.3094869682104
 30
0.0
 11
282.5523295352476
 21
-170.7164452203515
 31
0.0
  0
ARC
  5
16629
330
1E
100
AcDbEntity
  8
DETAIL
  6
CONTINUOUS
100
AcDbCircle
 10
280.1218884793807
 20
-165.0067956262878
 30
0.0
 40
2.945054685461506
100
AcDbArc
 50
88.10062859974328
 51
264.3727778097368
  0
ARC
  5
1662A
330
1E
100
AcDbEntity
  8
DETAIL
  6
CONTINUOUS
100
AcDbCircle
 10
282.3350912228788
 20
-165.0140255481815
 30
0.0
 40
2.92509978904237
100
AcDbArc
 50
275.2765866849069
 51
92.30395450675452
  0
LINE
  5
1664F
330
1E
100
AcDbEntity
  8
DETAIL
  6
CONTINUOUS
100
AcDbLine
 10
291.218009063733
 20
-171.5413067350858
 30
0.0
 11
290.2107232798653
 21
-171.5413219685996
 31
0.0
  0
LINE
  5
16650
330
1E
100
AcDbEntity
  8
DETAIL
  6
CONTINUOUS
100
AcDbLine
 10
290.2107232798653
 20
-171.5413219685996
 30
0.0
 11
290.2143927247916
 21
-171.8869315948271
 31
0.0
  0
LINE
  5
16651
330
1E
100
AcDbEntity
  8
DETAIL
  6
CONTINUOUS
100
AcDbLine
 10
290.2143927247916
 20
-171.8869315948271
 30
0.0
 11
290.2154057436773
 21
-171.9823435844831
 31
0.0
  0
ARC
  5
16654
330
1E
100
AcDbEntity
  8
DETAIL
  6
CONTINUOUS
100
AcDbCircle
 10
291.1910753482778
 20
-169.4056435592955
 30
0.0
 40
0.5169159082676897
100
AcDbArc
 50
0.0085219646151027
 51
88.51862995785579
  0
ARC
  5
16658
330
1E
100
AcDbEntity
  8
DETAIL
  6
CONTINUOUS
100
AcDbCircle
 10
291.2461851432153
 20
-171.079465336164
 30
0.0
 40
0.4627000855988304
100
AcDbArc
 50
266.508818804114
 51
356.4377761929571
  0
LINE
  5
16663
330
1E
100
AcDbEntity
  8
DETAIL
  6
CONTINUOUS
100
AcDbLine
 10
271.2189909362613
 20
-171.5413067350804
 30
0.0
 11
272.2262768714616
 21
-171.5413077564144
 31
0.0
  0
ARC
  5
16672
330
1E
100
AcDbEntity
  8
DETAIL
  6
CONTINUOUS
100
AcDbCircle
 10
271.2325613911662
 20
-169.3884004127611
 30
0.0
 40
0.4994999999987614
100
AcDbArc
 50
90.0
 51
171.4381733824064
  0
LINE
  5
16674
330
1E
100
AcDbEntity
  8
DETAIL
  6
CONTINUOUS
100
AcDbLine
 10
270.7386279242155
 20
-169.3140365759472
 30
0.0
 11
270.7290087491774
 21
-169.4055666751131
 31
0.0
  0
LINE
  5
16675
330
1E
100
AcDbEntity
  8
DETAIL
  6
CONTINUOUS
100
AcDbLine
 10
270.7290087491774
 20
-169.4055666751131
 30
0.0
 11
270.7290087491774
 21
-171.1082140436797
 31
0.0
  0
ARC
  5
1667A
330
1E
100
AcDbEntity
  8
DETAIL
  6
CONTINUOUS
100
AcDbCircle
 10
271.1908148110042
 20
-171.079465387957
 30
0.0
 40
0.4627000366823176
100
AcDbArc
 50
183.5622177582161
 51
273.4911872440024
  0
ARC
  5
1667B
330
1E
100
AcDbEntity
  8
DETAIL
  6
CONTINUOUS
100
AcDbCircle
 10
276.3251280954981
 20
-172.0530155354621
 30
0.0
 40
3.065963979627565
100
AcDbArc
 50
178.6791876201162
 51
228.9292821428444
  0
ARC
  5
1667C
330
1E
100
AcDbEntity
  8
DETAIL
  6
CONTINUOUS
100
AcDbCircle
 10
285.8275639288777
 20
-171.9006467081044
 30
0.0
 40
3.378772921061041
100
AcDbArc
 50
312.0677427595781
 51
358.6144844428809
  0
ARC
  5
16680
330
1E
100
AcDbEntity
  8
DETAIL
  6
CONTINUOUS
100
AcDbCircle
 10
288.7095868019977
 20
-167.2010918042278
 30
0.0
 40
4.627389119255126
100
AcDbArc
 50
61.30739406424525
 51
84.25056471303333
  0
ARC
  5
16682
330
1E
100
AcDbEntity
  8
DETAIL
  6
CONTINUOUS
100
AcDbCircle
 10
273.4095201458321
 20
-166.1754774618307
 30
0.0
 40
3.581460420831991
100
AcDbArc
 50
92.33106579370632
 51
122.1109753310676
  0
LINE
  5
16683
330
1E
100
AcDbEntity
  8
DETAIL
  6
CONTINUOUS
100
AcDbLine
 10
272.2215942563152
 20
-171.9823435844831
 30
0.0
 11
272.2215942563152
 21
-171.5413077516664
 31
0.0
  0
LINE
  5
166C5
330
1E
100
AcDbEntity
  8
DETAIL
  6
CONTINUOUS
100
AcDbLine
 10
245.2545000004584
 20
-176.0475178686933
 30
0.0
 11
245.2545000004584
 21
-143.5260629816843
 31
0.0
  0
LINE
  5
1679B
330
1E
100
AcDbEntity
  8
DETAIL
  6
CONTINUOUS
100
AcDbLine
 10
209.2904999999945
 20
-176.0475174775951
 30
0.0
 11
209.2904999999945
 21
-143.5260625905865
 31
0.0
  0
LINE
  5
16873
330
1E
100
AcDbEntity
  8
DETAIL
  6
CONTINUOUS
100
AcDbLine
 10
173.3264999999983
 20
-176.0475174775951
 30
0.0
 11
173.3264999999983
 21
-143.5260625905865
 31
0.0
  0
LINE
  5
16951
330
1E
100
AcDbEntity
  8
DETAIL
  6
CONTINUOUS
100
AcDbLine
 10
137.3625
 20
-176.0475174775951
 30
0.0
 11
137.3625
 21
-143.5260625905865
 31
0.0
  0
LINE
  5
16A27
330
1E
100
AcDbEntity
  8
DETAIL
  6
CONTINUOUS
100
AcDbLine
 10
101.398500000002
 20
-176.0475174775951
 30
0.0
 11
101.398500000002
 21
-143.5260625905865
 31
0.0
  0
LINE
  5
16AFC
330
1E
100
AcDbEntity
  8
DETAIL
  6
CONTINUOUS
100
AcDbLine
 10
21.47850000044763
 20
-176.0475178618958
 30
0.0
 11
21.47850000044763
 21
-143.5260629748868
 31
0.0
  0
LINE
  5
16BD9
330
1E
100
AcDbEntity
  8
DETAIL
  6
CONTINUOUS
100
AcDbLine
 10
-14.48549999999613
 20
-176.0475174775951
 30
0.0
 11
-14.48549999999613
 21
-143.5260625905865
 31
0.0
  0
LINE
  5
16CB0
330
1E
100
AcDbEntity
  8
DETAIL
  6
CONTINUOUS
100
AcDbLine
 10
-50.44950000000516
 20
-176.0475174775951
 30
0.0
 11
-50.44950000000516
 21
-143.5260625905865
 31
0.0
  0
LINE
  5
16D88
330
1E
100
AcDbEntity
  8
DETAIL
  6
CONTINUOUS
100
AcDbLine
 10
-116.3834999984656
 20
-176.0475188040754
 30
0.0
 11
-116.3834999984656
 21
-143.5260639170668
 31
0.0
  0
LINE
  5
16E69
330
1E
100
AcDbEntity
  8
DETAIL
  6
CONTINUOUS
100
AcDbLine
 10
-152.3475000000006
 20
-176.0475174775951
 30
0.0
 11
-152.3475000000006
 21
-143.5260625905865
 31
0.0
  0
LINE
  5
16F42
330
1E
100
AcDbEntity
  8
DETAIL
  6
CONTINUOUS
100
AcDbLine
 10
-188.3114999999969
 20
-176.0475174775951
 30
0.0
 11
-188.3114999999969
 21
-143.5260625905865
 31
0.0
  0
LINE
  5
1702A
330
1E
100
AcDbEntity
  8
DETAIL
  6
CONTINUOUS
100
AcDbLine
 10
-268.231499999997
 20
-176.0475174775951
 30
0.0
 11
-268.231499999997
 21
-143.5260625905865
 31
0.0
  0
LINE
  5
170F9
330
1E
100
AcDbEntity
  8
DETAIL
  6
CONTINUOUS
100
AcDbLine
 10
-304.1954999999952
 20
-176.0475174775951
 30
0.0
 11
-304.1954999999952
 21
-143.5260625905865
 31
0.0
  0
LINE
  5
171CA
330
1E
100
AcDbEntity
  8
DETAIL
  6
CONTINUOUS
100
AcDbLine
 10
-340.1594999999933
 20
-176.0475174775951
 30
0.0
 11
-340.1594999999933
 21
-143.5260625905865
 31
0.0
  0
LINE
  5
172A5
330
1E
100
AcDbEntity
  8
DETAIL
  6
CONTINUOUS
100
AcDbLine
 10
-376.1235000000023
 20
-176.0475174775951
 30
0.0
 11
-376.1235000000023
 21
-143.5260625905865
 31
0.0
  0
LINE
  5
17389
330
1E
100
AcDbEntity
  8
DETAIL
  6
CONTINUOUS
100
AcDbLine
 10
-412.0875000000005
 20
-176.0475174775951
 30
0.0
 11
-412.0875000000005
 21
-143.5260625905865
 31
0.0
  0
LINE
  5
17465
330
1E
100
AcDbEntity
  8
DETAIL
  6
CONTINUOUS
100
AcDbLine
 10
-448.0514999999967
 20
-176.0475174775951
 30
0.0
 11
-448.0514999999967
 21
-143.5260625905865
 31
0.0
  0
LINE
  5
17501
330
1E
100
AcDbEntity
  8
DETAIL
  6
CONTINUOUS
100
AcDbLine
 10
-576.9224999999996
 20
-5.000000000000453
 30
0.0
 11
576.9225000000013
 21
-5.000000000000453
 31
0.0
  0
LINE
  5
17502
330
1E
100
AcDbEntity
  8
DETAIL
  6
CONTINUOUS
100
AcDbLine
 10
-576.9225000000013
 20
0.0000000000004547
 30
0.0
 11
576.9225000000013
 21
-0.0000000000004547
 31
0.0
  0
LINE
  5
17503
330
1E
100
AcDbEntity
  8
DETAIL
  6
CONTINUOUS
100
AcDbLine
 10
-571.1282999999939
 20
-12.26145775696613
 30
0.0
 11
571.1283000000085
 21
-12.26145775696613
 31
0.0
  0
SPLINE
  5
17504
330
1E
100
AcDbEntity
  8
DETAIL
  6
CONTINUOUS
100
AcDbSpline
210
0.0
220
0.0
230
1.0
 70
     8
 71
     3
 72
    11
 73
     7
 74
     5
 42
0.0000000001
 43
0.0000000001
 44
0.00000001
 40
0.0
 40
0.0
 40
0.0
 40
0.0
 40
278.7966010391186
 40
579.3620883733418
 40
856.8475679950394
 40
1158.810784808429
 40
1158.810784808429
 40
1158.810784808429
 40
1158.810784808429
 10
579.1808439576333
 20
-285.5616043143516
 30
0.0
 10
486.3291864859366
 20
-289.5457530855724
 30
0.0
 10
293.3758650272742
 20
-297.8251393463864
 30
0.0
 10
7.736730015098146
 20
-301.0355257283735
 30
0.0
 10
-285.622289582228
 20
-298.0148325290993
 30
0.0
 10
-478.6105157492991
 20
-289.827960145633
 30
0.0
 10
-579.1808439576278
 20
-285.5616043143506
 30
0.0
 11
579.1808439576333
 21
-285.5616043143516
 31
0.0
 11
300.5834683572728
 21
-296.0994911817148
 31
0.0
 11
0.0432909757919333
 21
-299.9999983448422
 31
0.0
 11
-277.422297126267
 21
-296.6775263446568
 31
0.0
 11
-579.1808439576278
 21
-285.5616043143506
 31
0.0
  0
LINE
  5
17505
330
1E
100
AcDbEntity
  8
DETAIL
  6
CONTINUOUS
100
AcDbLine
 10
582.5644500531607
 20
-274.4906542420199
 30
0.0
 11
-582.5644500531589
 21
-274.4906542420199
 31
0.0
  0
SPLINE
  5
17506
330
1E
100
AcDbEntity
  8
DETAIL
  6
CONTINUOUS
100
AcDbSpline
210
0.0
220
0.0
230
1.0
 70
     8
 71
     3
 72
    11
 73
     7
 74
     5
 42
0.0000000001
 43
0.0000000001
 44
0.00000001
 40
0.0
 40
0.0
 40
0.0
 40
0.0
 40
313.3413952757376
 40
582.3558534038567
 40
851.3703115319337
 40
1164.711580014792
 40
1164.711580014792
 40
1164.711580014792
 40
1164.711580014792
 10
-582.3558521844232
 20
-273.9839337360101
 30
0.0
 10
-477.9087209459756
 20
-273.9719761444916
 30
0.0
 10
-283.7901041113715
 20
-273.9497525686416
 30
0.0
 10
0.0000000411659187
 20
-273.9588158622118
 30
0.0
 10
283.7900616687878
 20
-273.9518892726878
 30
0.0
 10
477.9086368326487
 20
-273.9660825076666
 30
0.0
 10
582.3557261261766
 20
-273.9737192879885
 30
0.0
 11
-582.3558521844232
 21
-273.9839337360101
 31
0.0
 11
-269.0144581281155
 21
-273.9562896448139
 31
0.0
 11
0.0000000000045475
 21
-273.9562896448139
 31
0.0
 11
269.0144581281173
 21
-273.9562896448139
 31
0.0
 11
582.3557261261766
 21
-273.9737192879885
 31
0.0
  0
LINE
  5
17507
330
1E
100
AcDbEntity
  8
DETAIL
  6
CONTINUOUS
100
AcDbLine
 10
-581.3568782787124
 20
-272.9921542420202
 30
0.0
 11
538.0289162562321
 21
-272.9921542420191
 31
0.0
  0
LINE
  5
17508
330
1E
100
AcDbEntity
  8
DETAIL
  6
CONTINUOUS
100
AcDbLine
 10
579.3816159858097
 20
-265.9994115218064
 30
0.0
 11
-579.3816092176847
 21
-265.9994115218064
 31
0.0
  0
LINE
  5
17509
330
1E
100
AcDbEntity
  8
DETAIL
  6
CONTINUOUS
100
AcDbLine
 10
584.9145000000053
 20
-114.1511542420198
 30
0.0
 11
-584.9144999999926
 21
-114.1511542420198
 31
0.0
  0
LINE
  5
1750A
330
1E
100
AcDbEntity
  8
DETAIL
  6
CONTINUOUS
100
AcDbLine
 10
-584.999999010709
 20
-115.6496542420204
 30
0.0
 11
585.000000989291
 21
-115.6496542420204
 31
0.0
  0
LINE
  5
1750B
330
1E
100
AcDbEntity
  8
DETAIL
  6
CONTINUOUS
100
AcDbLine
 10
-579.8808053846396
 20
-265.5173309327242
 30
0.0
 11
-584.999999010709
 21
-115.6496542420204
 31
0.0
  0
LINE
  5
1750C
330
1E
100
AcDbEntity
  8
DETAIL
  6
CONTINUOUS
100
AcDbLine
 10
-575.1215379986814
 20
-272.992154242022
 30
0.0
 11
-575.3320291469017
 21
-266.9635433249946
 31
0.0
  0
LINE
  5
1750D
330
1E
100
AcDbEntity
  8
DETAIL
  6
CONTINUOUS
100
AcDbLine
 10
-569.5835356912347
 20
-274.4906542420199
 30
0.0
 11
-569.181343810026
 21
-286.0079228206681
 31
0.0
  0
ARC
  5
1750E
330
1E
100
AcDbEntity
  8
DETAIL
  6
CONTINUOUS
100
AcDbCircle
 10
-581.5469879133006
 20
-274.9905509784906
 30
0.0
 40
0.9986033479336484
100
AcDbArc
 50
181.9656400169461
 51
269.9764428195666
  0
LINE
  5
1750F
330
1E
100
AcDbEntity
  8
DETAIL
  6
CONTINUOUS
100
AcDbLine
 10
-579.5493982867292
 20
-275.0075891960499
 30
0.0
 11
-582.5450036594165
 21
-275.0248032340454
 31
0.0
  0
LINE
  5
17510
330
1E
100
AcDbEntity
  8
DETAIL
  6
CONTINUOUS
100
AcDbLine
 10
-579.515121280071
 20
-275.9891542420214
 30
0.0
 11
-581.5473984894114
 21
-275.9891542420214
 31
0.0
  0
LINE
  5
17511
330
1E
100
AcDbEntity
  8
DETAIL
  6
CONTINUOUS
100
AcDbLine
 10
-579.5674500531539
 20
-274.4906542420199
 30
0.0
 11
-579.1808439576278
 21
-285.5616043143503
 31
0.0
  0
LINE
  5
17512
330
1E
100
AcDbEntity
  8
DETAIL
  6
CONTINUOUS
100
AcDbLine
 10
-582.5450036594202
 20
-275.0248032340454
 30
0.0
 11
-582.5644500531589
 21
-274.4906542420199
 31
0.0
  0
ARC
  5
17513
330
1E
100
AcDbEntity
  8
DETAIL
  6
CONTINUOUS
100
AcDbCircle
 10
-581.3568782787124
 20
-273.99115424202
 30
0.0
 40
0.9989999999999991
100
AcDbArc
 50
90.0
 51
179.0000000000116
  0
LINE
  5
17514
330
1E
100
AcDbEntity
  8
DETAIL
  6
CONTINUOUS
100
AcDbLine
 10
-582.3646500913155
 20
-274.4906564280349
 30
0.0
 11
-582.3558521844216
 21
-273.9839337358858
 31
0.0
  0
ARC
  5
17515
330
1E
100
AcDbEntity
  8
DETAIL
  6
CONTINUOUS
100
AcDbCircle
 10
-579.3816059932969
 20
-265.499908183989
 30
0.0
 40
0.4995033378277186
100
AcDbArc
 50
181.9988905403939
 51
269.9996301448811
  0
ARC
  5
17516
330
1E
100
AcDbEntity
  8
DETAIL
  6
CONTINUOUS
100
AcDbCircle
 10
-576.3306649319791
 20
-266.9986637134257
 30
0.0
 40
0.9992531575737155
100
AcDbArc
 50
2.014168813236501
 51
89.92033317421862
  0
LINE
  5
17517
330
1E
100
AcDbEntity
  8
DETAIL
  6
CONTINUOUS
100
AcDbLine
 10
-584.6178938882068
 20
-93.69668817252614
 30
0.0
 11
-578.1089244471486
 21
-83.12457591999873
 31
0.0
  0
ARC
  5
17518
330
1E
100
AcDbEntity
  8
DETAIL
  6
CONTINUOUS
100
AcDbCircle
 10
-583.8731564081418
 20
-115.1501546634194
 30
0.0
 40
0.4994995786010936
100
AcDbArc
 50
270.0000496133994
 51
358.0000496134609
  0
LINE
  5
17519
330
1E
100
AcDbEntity
  8
DETAIL
  6
CONTINUOUS
100
AcDbLine
 10
-583.3384664989762
 20
-114.1511542420216
 30
0.0
 11
-583.3739610960918
 21
-115.167586515054
 31
0.0
  0
ARC
  5
1751A
330
1E
100
AcDbEntity
  8
DETAIL
  6
CONTINUOUS
100
AcDbCircle
 10
-582.9164550824034
 20
-94.74403265786486
 30
0.0
 40
1.997955074786593
100
AcDbArc
 50
148.3850433034911
 51
180.0050279050699
  0
LINE
  5
1751B
330
1E
100
AcDbEntity
  8
DETAIL
  6
CONTINUOUS
100
AcDbLine
 10
-584.914410149503
 20
-94.74420798541132
 30
0.0
 11
-584.9144999999926
 21
-114.1511542420198
 31
0.0
  0
LINE
  5
1751C
330
1E
100
AcDbEntity
  8
DETAIL
  6
CONTINUOUS
100
AcDbLine
 10
-576.9224999999924
 20
-78.93456334311348
 30
0.0
 11
-576.9225000000013
 21
0.0000000000004547
 31
0.0
  0
ARC
  5
1751D
330
1E
100
AcDbEntity
  8
DETAIL
  6
CONTINUOUS
100
AcDbCircle
 10
-584.9144999999926
 20
-78.93456334311348
 30
0.0
 40
7.99200000000012
100
AcDbArc
 50
328.3804935222821
 51
0.0
  0
LINE
  5
1751E
330
1E
100
AcDbEntity
  8
DETAIL
  6
CONTINUOUS
100
AcDbLine
 10
-571.1282999999939
 20
-12.26145775696613
 30
0.0
 11
-576.9224999999996
 21
-9.513032646996633
 31
0.0
  0
LINE
  5
17521
330
1E
100
AcDbEntity
  8
DETAIL
  6
CONTINUOUS
100
AcDbLine
 10
579.8808053813217
 20
-265.5173310281138
 30
0.0
 11
585.000000989291
 21
-115.6496542420204
 31
0.0
  0
LINE
  5
17522
330
1E
100
AcDbEntity
  8
DETAIL
  6
CONTINUOUS
100
AcDbLine
 10
373.14044433246
 20
-266.8939875870031
 30
0.0
 11
538.8541905711454
 21
-266.8939875870031
 31
0.0
  0
ARC
  5
17523
330
1E
100
AcDbEntity
  8
DETAIL
  6
CONTINUOUS
100
AcDbCircle
 10
581.5473983414602
 20
-274.9901543946748
 30
0.0
 40
0.9989998473458838
100
AcDbArc
 50
270.000008486043
 51
358.0000084859597
  0
LINE
  5
17524
330
1E
100
AcDbEntity
  8
DETAIL
  6
CONTINUOUS
100
AcDbLine
 10
579.5493982867456
 20
-275.0075891960499
 30
0.0
 11
582.5457896302549
 21
-275.0250188386838
 31
0.0
  0
ARC
  5
17525
330
1E
100
AcDbEntity
  8
DETAIL
  6
CONTINUOUS
100
AcDbCircle
 10
581.3568782787142
 20
-273.99115424202
 30
0.0
 40
0.9990000000008606
100
AcDbArc
 50
0.9999999999882817
 51
90.0
  0
LINE
  5
17526
330
1E
100
AcDbEntity
  8
DETAIL
  6
CONTINUOUS
100
AcDbLine
 10
538.8698054544484
 20
-265.9994115218054
 30
0.0
 11
538.7477466762311
 21
-272.992154242022
 31
0.0
  0
LINE
  5
17527
330
1E
100
AcDbEntity
  8
DETAIL
  6
CONTINUOUS
100
AcDbLine
 10
575.3327797361207
 20
-266.9469642969493
 30
0.0
 11
575.1215388074934
 21
-272.992154242022
 31
0.0
  0
LINE
  5
17528
330
1E
100
AcDbEntity
  8
DETAIL
  6
CONTINUOUS
100
AcDbLine
 10
569.5835356912493
 20
-274.4906542420199
 30
0.0
 11
569.1813437053578
 21
-286.0079259523022
 31
0.0
  0
LINE
  5
17529
330
1E
100
AcDbEntity
  8
DETAIL
  6
CONTINUOUS
100
AcDbLine
 10
579.5151212800856
 20
-275.9891542420214
 30
0.0
 11
581.5473983414602
 21
-275.9891542420214
 31
0.0
  0
LINE
  5
1752A
330
1E
100
AcDbEntity
  8
DETAIL
  6
CONTINUOUS
100
AcDbLine
 10
581.0828582549902
 20
-275.0075891861683
 30
0.0
 11
581.1009100210148
 21
-274.4906542420199
 31
0.0
  0
LINE
  5
1752B
330
1E
100
AcDbEntity
  8
DETAIL
  6
CONTINUOUS
100
AcDbLine
 10
579.5674500531686
 20
-274.4906542420199
 30
0.0
 11
579.1808439576298
 21
-285.5616043143503
 31
0.0
  0
LINE
  5
1752C
330
1E
100
AcDbEntity
  8
DETAIL
  6
CONTINUOUS
100
AcDbLine
 10
582.3646500913172
 20
-274.4906564280349
 30
0.0
 11
582.3558521844359
 21
-273.9839337358858
 31
0.0
  0
LINE
  5
1752D
330
1E
100
AcDbEntity
  8
DETAIL
  6
CONTINUOUS
100
AcDbLine
 10
580.9604709935784
 20
-274.4906542420199
 30
0.0
 11
580.9515707548407
 21
-273.9839337361157
 31
0.0
  0
LINE
  5
1752E
330
1E
100
AcDbEntity
  8
DETAIL
  6
CONTINUOUS
100
AcDbLine
 10
538.0289162562321
 20
-272.9921542420191
 30
0.0
 11
581.3568782787142
 21
-272.9921542420191
 31
0.0
  0
LINE
  5
1752F
330
1E
100
AcDbEntity
  8
DETAIL
  6
CONTINUOUS
100
AcDbLine
 10
538.0289162562321
 20
-272.9921542420191
 30
0.0
 11
538.0289162562321
 21
-274.4906542420199
 31
0.0
  0
ARC
  5
17530
330
1E
100
AcDbEntity
  8
DETAIL
  6
CONTINUOUS
100
AcDbCircle
 10
579.3816094471702
 20
-265.4999117605362
 30
0.0
 40
0.4994997613127146
100
AcDbArc
 50
270.0007500232645
 51
358.0014946953953
  0
ARC
  5
17531
330
1E
100
AcDbEntity
  8
DETAIL
  6
CONTINUOUS
100
AcDbCircle
 10
576.3306023951217
 20
-266.9985671464542
 30
0.0
 40
0.9991561003631435
100
AcDbArc
 50
90.39803996597271
 51
177.0395602237165
  0
LINE
  5
17532
330
1E
100
AcDbEntity
  8
DETAIL
  6
CONTINUOUS
100
AcDbLine
 10
582.5457896302549
 20
-275.025018838683
 30
0.0
 11
582.5644500531607
 21
-274.4906542420199
 31
0.0
  0
LINE
  5
17533
330
1E
100
AcDbEntity
  8
DETAIL
  6
CONTINUOUS
100
AcDbLine
 10
578.1089244471503
 20
-83.12457591999873
 30
0.0
 11
584.6178938882212
 21
-93.69668817252522
 31
0.0
  0
ARC
  5
17534
330
1E
100
AcDbEntity
  8
DETAIL
  6
CONTINUOUS
100
AcDbCircle
 10
583.8731564079616
 20
-115.1501546636068
 30
0.0
 40
0.4994995784139655
100
AcDbArc
 50
181.9999504074869
 51
269.9999504074446
  0
LINE
  5
17535
330
1E
100
AcDbEntity
  8
DETAIL
  6
CONTINUOUS
100
AcDbLine
 10
583.3384664989908
 20
-114.1511542420216
 30
0.0
 11
583.3739610961065
 21
-115.167586515417
 31
0.0
  0
LINE
  5
17536
330
1E
100
AcDbEntity
  8
DETAIL
  6
CONTINUOUS
100
AcDbLine
 10
576.9225000000013
 20
-78.93456334311348
 30
0.0
 11
576.9225000000013
 21
-0.0000000000004547
 31
0.0
  0
ARC
  5
17537
330
1E
100
AcDbEntity
  8
DETAIL
  6
CONTINUOUS
100
AcDbCircle
 10
584.9145000000053
 20
-78.93456334311348
 30
0.0
 40
7.991999999999991
100
AcDbArc
 50
180.0
 51
211.6195064777177
  0
LINE
  5
17538
330
1E
100
AcDbEntity
  8
DETAIL
  6
CONTINUOUS
100
AcDbLine
 10
571.1283000000085
 20
-12.26145775696613
 30
0.0
 11
576.9225000000051
 21
-9.513032646995723
 31
0.0
  0
ARC
  5
1753A
330
1E
100
AcDbEntity
  8
DETAIL
  6
CONTINUOUS
100
AcDbCircle
 10
582.9164999999984
 20
-94.7441913167445
 30
0.0
 40
1.998000000000906
100
AcDbArc
 50
359.9999999999348
 51
31.61950647767342
  0
LINE
  5
1753B
330
1E
100
AcDbEntity
  8
DETAIL
  6
CONTINUOUS
100
AcDbLine
 10
584.9145000000053
 20
-94.74419131674631
 30
0.0
 11
584.9145000000053
 21
-114.1511542420198
 31
0.0
  0
POINT
  5
179DC
330
1E
100
AcDbEntity
  8
ARRANGE
  6
CONTINUOUS
100
AcDbPoint
 10
-0.0000000000009095
 20
0.0
 30
0.0
  0
CIRCLE
  5
179DD
330
1E
100
AcDbEntity
  8
ARRANGE
  6
CONTINUOUS
100
AcDbCircle
 10
-0.0000000000009095
 20
0.0
 30
0.0
 40
40.0
  0
LINE
  5
179DE
330
1E
100
AcDbEntity
  8
NOTE
  6
CONTINUOUS
 62
     4
100
AcDbLine
 10
653.3112680337717
 20
290.1634163783759
 30
0.0
 11
1445.479181782236
 21
290.1634163783759
 31
0.0
  0
TEXT
  5
179DF
330
1E
100
AcDbEntity
  8
NOTE
 62
     4
100
AcDbText
 10
699.0996980418867
 20
316.9142763783761
 30
0.0
 40
64.0
  1
D,RL,RG%%C75～%%C80
 41
0.9
100
AcDbText
  0
LINE
  5
179E1
330
1E
100
AcDbEntity
  8
NOTE
  6
CONTINUOUS
 62
     4
100
AcDbLine
 10
449.1999999999999
 20
-0.0000000000009095
 30
0.0
 11
653.3112680337717
 21
290.1634163783759
 31
0.0
  0
LINE
  5
179E3
330
1E
100
AcDbEntity
  8
NOTE
  6
DASHDOT
 62
     4
100
AcDbLine
 10
449.1999999999999
 20
19.99999999999909
 30
0.0
 11
449.1999999999999
 21
-20.00000000000091
 31
0.0
  0
LINE
  5
179E4
330
1E
100
AcDbEntity
  8
NOTE
  6
CONTINUOUS
 62
     4
100
AcDbLine
 10
480.0866864137979
 20
25.4167854765501
 30
0.0
 11
449.1999999999999
 21
-0.0000000000009095
 31
0.0
  0
LINE
  5
179E5
330
1E
100
AcDbEntity
  8
NOTE
  6
CONTINUOUS
 62
     4
100
AcDbLine
 10
449.1999999999999
 20
-0.0000000000009095
 30
0.0
 11
463.2402630646038
 21
37.45491758922343
 31
0.0
  0
LINE
  5
179E6
330
1E
100
AcDbEntity
  8
NOTE
  6
DASHDOT
 62
     4
100
AcDbLine
 10
429.1999999999998
 20
-0.0000000000009095
 30
0.0
 11
469.1999999999999
 21
-0.0000000000009095
 31
0.0
  0
LINE
  5
179E8
330
1E
100
AcDbEntity
  8
NOTE
  6
CONTINUOUS
 62
     4
100
AcDbLine
 10
-530.5000000000007
 20
0.0000000000009095
 30
0.0
 11
-607.3199101974542
 21
285.240243401156
 31
0.0
  0
LINE
  5
179EA
330
1E
100
AcDbEntity
  8
NOTE
  6
CONTINUOUS
 62
     4
100
AcDbLine
 10
-607.3199101974542
 20
285.240243401156
 30
0.0
 11
-1333.084361591025
 21
285.2402434011541
 31
0.0
  0
TEXT
  5
179EB
330
1E
100
AcDbEntity
  8
NOTE
 62
     4
100
AcDbText
 10
-1322.123994529019
 20
308.7711634011534
 30
0.0
 40
64.0
  1
D,RL,RG%%C75～%%C80
 41
0.9
100
AcDbText
  0
LINE
  5
179EC
330
1E
100
AcDbEntity
  8
NOTE
  6
DASHDOT
 62
     4
100
AcDbLine
 10
-530.5000000000007
 20
20.0
 30
0.0
 11
-530.5000000000007
 21
-20.0
 31
0.0
  0
LINE
  5
179ED
330
1E
100
AcDbEntity
  8
NOTE
  6
CONTINUOUS
 62
     4
100
AcDbLine
 10
-550.8003596504541
 20
34.46586397651572
 30
0.0
 11
-530.5000000000007
 21
0.0000000000009095
 31
0.0
  0
LINE
  5
179EE
330
1E
100
AcDbEntity
  8
NOTE
  6
CONTINUOUS
 62
     4
100
AcDbLine
 10
-530.5000000000007
 20
0.0000000000009095
 30
0.0
 11
-530.8476984398266
 21
39.99848677554928
 31
0.0
  0
LINE
  5
179EF
330
1E
100
AcDbEntity
  8
NOTE
  6
DASHDOT
 62
     4
100
AcDbLine
 10
-550.5000000000007
 20
0.0
 30
0.0
 11
-510.5000000000008
 21
0.0
 31
0.0
  0
TEXT
  5
18110
330
1E
100
AcDbEntity
  8
ETC
100
AcDbText
 10
-1058.994229088364
 20
517.0407296339658
 30
0.0
 40
64.0
  1
PKFY-P63VKM_6
 41
0.7580032059437246
 72
     5
 11
-437.5759817775467
 21
517.0407296339658
 31
0.0
100
AcDbText
  0
LINE
  5
181D1
330
1E
100
AcDbEntity
  8
SIZE
  6
CONTINUOUS
100
AcDbLine
 10
-0.0000000000009083
 20
99.10129269054507
 30
0.0
 11
-0.0000000000009054
 21
146.0733136105291
 31
0.0
  0
LINE
  5
181D2
330
1E
100
AcDbEntity
  8
SIZE
  6
CONTINUOUS
100
AcDbLine
 10
-530.5000000000007
 20
40.0
 30
0.0
 11
-530.5000000000007
 21
146.0733136105291
 31
0.0
  0
LINE
  5
181D3
330
1E
100
AcDbEntity
  8
SIZE
  6
CONTINUOUS
100
AcDbLine
 10
-10.0000000000009
 20
126.073313610529
 30
0.0
 11
-520.5000000000008
 21
126.073313610529
 31
0.0
  0
LINE
  5
181D7
330
1E
100
AcDbEntity
  8
SIZE
  6
CONTINUOUS
100
AcDbLine
 10
584.9999999999989
 20
-135.6496542420209
 30
0.0
 11
584.9999999999989
 21
-482.0176523430531
 31
0.0
  0
LINE
  5
181D8
330
1E
100
AcDbEntity
  8
SIZE
  6
CONTINUOUS
100
AcDbLine
 10
-585.0000000000007
 20
-135.6496542420209
 30
0.0
 11
-585.0000000000007
 21
-482.0176523430531
 31
0.0
  0
LINE
  5
181D9
330
1E
100
AcDbEntity
  8
SIZE
  6
CONTINUOUS
100
AcDbLine
 10
574.9999999999992
 20
-462.0176523430532
 30
0.0
 11
-575.0000000000007
 21
-462.0176523430532
 31
0.0
  0
LINE
  5
181DD
330
1E
100
AcDbEntity
  8
SIZE
  6
CONTINUOUS
100
AcDbLine
 10
-596.9225009892916
 20
0.0000000000000057
 30
0.0
 11
-768.0811843984454
 21
0.0000000000000542
 31
0.0
  0
LINE
  5
181DE
330
1E
100
AcDbEntity
  8
SIZE
  6
CONTINUOUS
100
AcDbLine
 10
-20.00000000000091
 20
-300.0000000532835
 30
0.0
 11
-768.0811843984455
 21
-300.0000000532833
 31
0.0
  0
LINE
  5
181DF
330
1E
100
AcDbEntity
  8
SIZE
  6
CONTINUOUS
100
AcDbLine
 10
-748.0811843984454
 20
-9.999999999999948
 30
0.0
 11
-748.0811843984455
 21
-290.0000000532833
 31
0.0
  0
LINE
  5
181E3
330
1E
100
AcDbEntity
  8
SIZE
  6
CONTINUOUS
100
AcDbLine
 10
-530.5000000000007
 20
40.0
 30
0.0
 11
-530.5000000000007
 21
146.0733136105291
 31
0.0
  0
LINE
  5
181E4
330
1E
100
AcDbEntity
  8
SIZE
  6
CONTINUOUS
100
AcDbLine
 10
-585.0000000000007
 20
-95.64965424202092
 30
0.0
 11
-585.0000000000007
 21
146.0733136105291
 31
0.0
  0
LINE
  5
181E5
330
1E
100
AcDbEntity
  8
SIZE
  6
CONTINUOUS
100
AcDbLine
 10
-520.5000000000008
 20
126.073313610529
 30
0.0
 11
-510.5000000000008
 21
126.073313610529
 31
0.0
  0
LINE
  5
181E6
330
1E
100
AcDbEntity
  8
SIZE
  6
CONTINUOUS
100
AcDbLine
 10
-595.0000000000008
 20
126.073313610529
 30
0.0
 11
-762.142857142858
 21
126.073313610529
 31
0.0
  0
LINE
  5
181E7
330
1E
100
AcDbEntity
  8
SIZE
  6
CONTINUOUS
100
AcDbLine
 10
-530.5000000000007
 20
126.073313610529
 30
0.0
 11
-585.0000000000007
 21
126.073313610529
 31
0.0
  0
LINE
  5
181EB
330
1E
100
AcDbEntity
  8
SIZE
  6
CONTINUOUS
100
AcDbLine
 10
449.1999999999999
 20
39.99999999999909
 30
0.0
 11
449.1999999999999
 21
146.0733136105291
 31
0.0
  0
LINE
  5
181EC
330
1E
100
AcDbEntity
  8
SIZE
  6
CONTINUOUS
100
AcDbLine
 10
584.9999999999989
 20
-95.64965424202092
 30
0.0
 11
584.9999999999989
 21
146.0733136105291
 31
0.0
  0
LINE
  5
181ED
330
1E
100
AcDbEntity
  8
SIZE
  6
CONTINUOUS
100
AcDbLine
 10
439.1999999999998
 20
126.073313610529
 30
0.0
 11
429.1999999999998
 21
126.073313610529
 31
0.0
  0
LINE
  5
181EE
330
1E
100
AcDbEntity
  8
SIZE
  6
CONTINUOUS
100
AcDbLine
 10
594.9999999999992
 20
126.073313610529
 30
0.0
 11
796.4285714285705
 21
126.073313610529
 31
0.0
  0
LINE
  5
181EF
330
1E
100
AcDbEntity
  8
SIZE
  6
CONTINUOUS
100
AcDbLine
 10
449.1999999999999
 20
126.073313610529
 30
0.0
 11
584.9999999999989
 21
126.073313610529
 31
0.0
  0
LINE
  5
181F3
330
1E
100
AcDbEntity
  8
SIZE
  6
CONTINUOUS
100
AcDbLine
 10
-0.0000000000009083
 20
99.10129269054507
 30
0.0
 11
-0.0000000000009054
 21
146.0733136105291
 31
0.0
  0
LINE
  5
181F4
330
1E
100
AcDbEntity
  8
SIZE
  6
CONTINUOUS
100
AcDbLine
 10
449.1999999999999
 20
39.99999999999909
 30
0.0
 11
449.1999999999999
 21
146.0733136105291
 31
0.0
  0
LINE
  5
181F5
330
1E
100
AcDbEntity
  8
SIZE
  6
CONTINUOUS
100
AcDbLine
 10
9.999999999999094
 20
126.073313610529
 30
0.0
 11
439.1999999999998
 21
126.073313610529
 31
0.0
  0
CIRCLE
  5
181F9
330
1E
100
AcDbEntity
  8
SIZE
  6
BYBLOCK
100
AcDbCircle
 10
-748.0811843984455
 20
-300.0000000532833
 30
0.0
 40
5.0
  0
LINE
  5
181FA
330
1E
100
AcDbEntity
  8
SIZE
  6
BYBLOCK
100
AcDbLine
 10
-748.0811843984455
 20
-300.0000000532833
 30
0.0
 11
-748.0811843984455
 21
-290.0000000532833
 31
0.0
  0
TEXT
  5
181FB
330
1E
100
AcDbEntity
  8
SIZE
  6
CONTINUOUS
100
AcDbText
 10
-758.0811843984454
 20
-207.8571428837846
 30
0.0
 40
50.0
  1
300
 50
90.0
 41
0.9
100
AcDbText
  0
CIRCLE
  5
181FC
330
1E
100
AcDbEntity
  8
SIZE
  6
BYBLOCK
100
AcDbCircle
 10
-585.0000000000007
 20
-462.0176523430532
 30
0.0
 40
5.0
  0
LINE
  5
181FD
330
1E
100
AcDbEntity
  8
SIZE
  6
BYBLOCK
100
AcDbLine
 10
-585.0000000000007
 20
-462.0176523430532
 30
0.0
 11
-575.0000000000007
 21
-462.0176523430532
 31
0.0
  0
TEXT
  5
181FE
330
1E
100
AcDbEntity
  8
SIZE
  6
CONTINUOUS
100
AcDbText
 10
-752.142857142858
 20
136.0733136105291
 30
0.0
 40
50.0
  1
54.5
 41
0.9
100
AcDbText
  0
CIRCLE
  5
181FF
330
1E
100
AcDbEntity
  8
SIZE
  6
BYBLOCK
100
AcDbCircle
 10
-748.0811843984454
 20
0.0000000000000485
 30
0.0
 40
5.0
  0
LINE
  5
18200
330
1E
100
AcDbEntity
  8
SIZE
  6
BYBLOCK
100
AcDbLine
 10
-748.0811843984454
 20
0.0000000000000485
 30
0.0
 11
-748.0811843984454
 21
-9.999999999999953
 31
0.0
  0
CIRCLE
  5
18201
330
1E
100
AcDbEntity
  8
SIZE
  6
BYBLOCK
100
AcDbCircle
 10
-585.0000000000007
 20
126.073313610529
 30
0.0
 40
5.0
  0
LINE
  5
18202
330
1E
100
AcDbEntity
  8
SIZE
  6
BYBLOCK
100
AcDbLine
 10
-585.0000000000007
 20
126.073313610529
 30
0.0
 11
-595.0000000000008
 21
126.073313610529
 31
0.0
  0
CIRCLE
  5
18203
330
1E
100
AcDbEntity
  8
SIZE
  6
BYBLOCK
100
AcDbCircle
 10
-530.5000000000007
 20
126.073313610529
 30
0.0
 40
5.0
  0
LINE
  5
18204
330
1E
100
AcDbEntity
  8
SIZE
  6
BYBLOCK
100
AcDbLine
 10
-530.5000000000007
 20
126.073313610529
 30
0.0
 11
-520.5000000000008
 21
126.073313610529
 31
0.0
  0
CIRCLE
  5
18205
330
1E
100
AcDbEntity
  8
SIZE
  6
BYBLOCK
100
AcDbCircle
 10
-530.5000000000007
 20
126.073313610529
 30
0.0
 40
5.0
  0
LINE
  5
18206
330
1E
100
AcDbEntity
  8
SIZE
  6
BYBLOCK
100
AcDbLine
 10
-530.5000000000007
 20
126.073313610529
 30
0.0
 11
-520.5000000000008
 21
126.073313610529
 31
0.0
  0
TEXT
  5
18207
330
1E
100
AcDbEntity
  8
SIZE
  6
CONTINUOUS
100
AcDbText
 10
-70.71428571428661
 20
-452.0176523430532
 30
0.0
 40
50.0
  1
1170
 41
0.9
100
AcDbText
  0
CIRCLE
  5
18208
330
1E
100
AcDbEntity
  8
SIZE
  6
BYBLOCK
100
AcDbCircle
 10
584.9999999999989
 20
-462.0176523430532
 30
0.0
 40
5.0
  0
LINE
  5
18209
330
1E
100
AcDbEntity
  8
SIZE
  6
BYBLOCK
100
AcDbLine
 10
584.9999999999989
 20
-462.0176523430532
 30
0.0
 11
574.9999999999992
 21
-462.0176523430532
 31
0.0
  0
TEXT
  5
1820A
330
1E
100
AcDbEntity
  8
SIZE
  6
CONTINUOUS
100
AcDbText
 10
-355.2500000000008
 20
136.0733136105291
 30
0.0
 40
50.0
  1
530.5
 41
0.9
100
AcDbText
  0
TEXT
  5
1820B
330
1E
100
AcDbEntity
  8
SIZE
  6
CONTINUOUS
100
AcDbText
 10
134.5999999999994
 20
136.0733136105291
 30
0.0
 40
50.0
  1
449.2
 41
0.9
100
AcDbText
  0
CIRCLE
  5
1820C
330
1E
100
AcDbEntity
  8
SIZE
  6
BYBLOCK
100
AcDbCircle
 10
-0.0000000000009066
 20
126.073313610529
 30
0.0
 40
5.0
  0
LINE
  5
1820D
330
1E
100
AcDbEntity
  8
SIZE
  6
BYBLOCK
100
AcDbLine
 10
-0.0000000000009066
 20
126.073313610529
 30
0.0
 11
9.999999999999094
 21
126.073313610529
 31
0.0
  0
CIRCLE
  5
1820E
330
1E
100
AcDbEntity
  8
SIZE
  6
BYBLOCK
100
AcDbCircle
 10
-0.0000000000009066
 20
126.073313610529
 30
0.0
 40
5.0
  0
LINE
  5
1820F
330
1E
100
AcDbEntity
  8
SIZE
  6
BYBLOCK
100
AcDbLine
 10
-0.0000000000009066
 20
126.073313610529
 30
0.0
 11
-10.0000000000009
 21
126.073313610529
 31
0.0
  0
TEXT
  5
18210
330
1E
100
AcDbEntity
  8
SIZE
  6
CONTINUOUS
100
AcDbText
 10
614.9999999999992
 20
136.0733136105291
 30
0.0
 40
50.0
  1
135.8
 41
0.9
100
AcDbText
  0
CIRCLE
  5
18211
330
1E
100
AcDbEntity
  8
SIZE
  6
BYBLOCK
100
AcDbCircle
 10
449.1999999999999
 20
126.073313610529
 30
0.0
 40
5.0
  0
LINE
  5
18212
330
1E
100
AcDbEntity
  8
SIZE
  6
BYBLOCK
100
AcDbLine
 10
449.1999999999999
 20
126.073313610529
 30
0.0
 11
439.1999999999998
 21
126.073313610529
 31
0.0
  0
CIRCLE
  5
18213
330
1E
100
AcDbEntity
  8
SIZE
  6
BYBLOCK
100
AcDbCircle
 10
449.1999999999999
 20
126.073313610529
 30
0.0
 40
5.0
  0
LINE
  5
18214
330
1E
100
AcDbEntity
  8
SIZE
  6
BYBLOCK
100
AcDbLine
 10
449.1999999999999
 20
126.073313610529
 30
0.0
 11
439.1999999999998
 21
126.073313610529
 31
0.0
  0
CIRCLE
  5
18215
330
1E
100
AcDbEntity
  8
SIZE
  6
BYBLOCK
100
AcDbCircle
 10
584.9999999999989
 20
126.073313610529
 30
0.0
 40
5.0
  0
LINE
  5
18216
330
1E
100
AcDbEntity
  8
SIZE
  6
BYBLOCK
100
AcDbLine
 10
584.9999999999989
 20
126.073313610529
 30
0.0
 11
594.9999999999992
 21
126.073313610529
 31
0.0
  0
LINE
  5
192E8
330
1E
100
AcDbEntity
  8
DETAIL
  6
CONTINUOUS
100
AcDbLine
 10
236.2575942567719
 20
-171.9823437830199
 30
0.0
 11
237.2959787358553
 21
-171.9823437830199
 31
0.0
  0
LINE
  5
192E9
330
1E
100
AcDbEntity
  8
DETAIL
  6
CONTINUOUS
100
AcDbLine
 10
236.2575942567719
 20
-171.9823437830199
 30
0.0
 11
237.2959787358553
 21
-171.9823437830199
 31
0.0
  0
LINE
  5
192EA
330
1E
100
AcDbEntity
  8
DETAIL
  6
CONTINUOUS
100
AcDbLine
 10
235.7470509512578
 20
-168.8889006112995
 30
0.0
 11
235.2685613916228
 21
-168.8889006112995
 31
0.0
  0
LINE
  5
192EB
330
1E
100
AcDbEntity
  8
DETAIL
  6
CONTINUOUS
100
AcDbLine
 10
235.7470509512578
 20
-168.8889006112995
 30
0.0
 11
235.2685613916228
 21
-168.8889006112995
 31
0.0
  0
LINE
  5
192EC
330
1E
100
AcDbEntity
  8
DETAIL
  6
CONTINUOUS
100
AcDbLine
 10
253.2413490131555
 20
-171.9823437830202
 30
0.0
 11
254.2514057441338
 21
-171.9823437830199
 31
0.0
  0
LINE
  5
192ED
330
1E
100
AcDbEntity
  8
DETAIL
  6
CONTINUOUS
100
AcDbLine
 10
254.7619490496609
 20
-168.8889006112994
 30
0.0
 11
255.2404386092829
 21
-168.8889006112995
 31
0.0
  0
LINE
  5
192EE
330
1E
100
AcDbEntity
  8
DETAIL
  6
CONTINUOUS
100
AcDbLine
 10
254.7619490496609
 20
-168.8889006112994
 30
0.0
 11
255.2404386092829
 21
-168.8889006112995
 31
0.0
  0
LINE
  5
192EF
330
1E
100
AcDbEntity
  8
DETAIL
  6
CONTINUOUS
100
AcDbLine
 10
244.2555000004621
 20
-148.258778057102
 30
0.0
 11
244.2555000004631
 21
-162.0633592123934
 31
0.0
  0
LINE
  5
192F0
330
1E
100
AcDbEntity
  8
DETAIL
  6
CONTINUOUS
100
AcDbLine
 10
246.2535000004563
 20
-148.258778057102
 30
0.0
 11
246.2535000004563
 21
-162.0912905414425
 31
0.0
  0
LINE
  5
192F1
330
1E
100
AcDbEntity
  8
DETAIL
  6
CONTINUOUS
100
AcDbLine
 10
236.2575942567719
 20
-171.9823437830199
 30
0.0
 11
236.2575942567719
 21
-171.5413079502031
 31
0.0
  0
ARC
  5
192F2
330
1E
100
AcDbEntity
  8
DETAIL
  6
CONTINUOUS
100
AcDbCircle
 10
237.4455201462887
 20
-166.1754776603675
 30
0.0
 40
3.581460420831991
100
AcDbArc
 50
92.33106579370632
 51
122.1109753310676
  0
ARC
  5
192F3
330
1E
100
AcDbEntity
  8
DETAIL
  6
CONTINUOUS
100
AcDbCircle
 10
252.7455868024544
 20
-167.2010920027646
 30
0.0
 40
4.627389119255126
100
AcDbArc
 50
61.30739406424525
 51
84.25056471303333
  0
ARC
  5
192F4
330
1E
100
AcDbEntity
  8
DETAIL
  6
CONTINUOUS
100
AcDbCircle
 10
249.8635639293343
 20
-171.9006469066411
 30
0.0
 40
3.378772921061041
100
AcDbArc
 50
312.0677427595781
 51
358.6144844428809
  0
ARC
  5
192F5
330
1E
100
AcDbEntity
  8
DETAIL
  6
CONTINUOUS
100
AcDbCircle
 10
240.3611280959548
 20
-172.053015733999
 30
0.0
 40
3.065963979627565
100
AcDbArc
 50
178.6791876201162
 51
228.9292821428444
  0
ARC
  5
192F6
330
1E
100
AcDbEntity
  8
DETAIL
  6
CONTINUOUS
100
AcDbCircle
 10
235.2268148114608
 20
-171.0794655864938
 30
0.0
 40
0.4627000366823176
100
AcDbArc
 50
183.5622177582161
 51
273.4911872440024
  0
LINE
  5
192F7
330
1E
100
AcDbEntity
  8
DETAIL
  6
CONTINUOUS
100
AcDbLine
 10
234.765008749634
 20
-169.40556687365
 30
0.0
 11
234.765008749634
 21
-171.1082142422164
 31
0.0
  0
LINE
  5
192F8
330
1E
100
AcDbEntity
  8
DETAIL
  6
CONTINUOUS
100
AcDbLine
 10
234.774627924672
 20
-169.314036774484
 30
0.0
 11
234.765008749634
 21
-169.40556687365
 31
0.0
  0
ARC
  5
192F9
330
1E
100
AcDbEntity
  8
DETAIL
  6
CONTINUOUS
100
AcDbCircle
 10
235.2685613916228
 20
-169.388400611298
 30
0.0
 40
0.4994999999987614
100
AcDbArc
 50
90.0
 51
171.4381733824064
  0
LINE
  5
192FA
330
1E
100
AcDbEntity
  8
DETAIL
  6
CONTINUOUS
100
AcDbLine
 10
235.254990936718
 20
-171.5413069336173
 30
0.0
 11
236.2622768719182
 21
-171.5413079549511
 31
0.0
  0
ARC
  5
192FB
330
1E
100
AcDbEntity
  8
DETAIL
  6
CONTINUOUS
100
AcDbCircle
 10
255.282185143672
 20
-171.0794655347008
 30
0.0
 40
0.4627000855988304
100
AcDbArc
 50
266.508818804114
 51
356.4377761929571
  0
ARC
  5
192FC
330
1E
100
AcDbEntity
  8
DETAIL
  6
CONTINUOUS
100
AcDbCircle
 10
255.2270753487345
 20
-169.4056437578324
 30
0.0
 40
0.5169159082676897
100
AcDbArc
 50
0.0085219646151027
 51
88.51862995785579
  0
LINE
  5
192FD
330
1E
100
AcDbEntity
  8
DETAIL
  6
CONTINUOUS
100
AcDbLine
 10
254.2503927252481
 20
-171.886931793364
 30
0.0
 11
254.2514057441338
 21
-171.9823437830199
 31
0.0
  0
LINE
  5
192FE
330
1E
100
AcDbEntity
  8
DETAIL
  6
CONTINUOUS
100
AcDbLine
 10
254.2467232803219
 20
-171.5413221671364
 30
0.0
 11
254.2503927252481
 21
-171.886931793364
 31
0.0
  0
LINE
  5
192FF
330
1E
100
AcDbEntity
  8
DETAIL
  6
CONTINUOUS
100
AcDbLine
 10
255.2540090641896
 20
-171.5413069336226
 30
0.0
 11
254.2467232803219
 21
-171.5413221671364
 31
0.0
  0
ARC
  5
19300
330
1E
100
AcDbEntity
  8
DETAIL
  6
CONTINUOUS
100
AcDbCircle
 10
246.3710912233354
 20
-165.0140257467182
 30
0.0
 40
2.92509978904237
100
AcDbArc
 50
275.2765866849069
 51
92.30395450675452
  0
ARC
  5
19301
330
1E
100
AcDbEntity
  8
DETAIL
  6
CONTINUOUS
100
AcDbCircle
 10
244.1578884798373
 20
-165.0067958248246
 30
0.0
 40
2.945054685461506
100
AcDbArc
 50
88.10062859974328
 51
264.3727778097368
  0
LINE
  5
19302
330
1E
100
AcDbEntity
  8
DETAIL
  6
CONTINUOUS
100
AcDbLine
 10
246.7443251088816
 20
-162.3094871667471
 30
0.0
 11
246.5883295357043
 21
-170.7164454188881
 31
0.0
  0
LINE
  5
19303
330
1E
100
AcDbEntity
  8
DETAIL
  6
CONTINUOUS
100
AcDbLine
 10
243.7646762814373
 20
-162.3094850323304
 30
0.0
 11
243.9206703301342
 21
-170.7164457109801
 31
0.0
  0
ARC
  5
19304
330
1E
100
AcDbEntity
  8
DETAIL
  6
CONTINUOUS
100
AcDbCircle
 10
246.6964892435871
 20
-171.5709033178959
 30
0.0
 40
0.4580256036283231
100
AcDbArc
 50
194.7217501057241
 51
275.9768903239495
  0
ARC
  5
19305
330
1E
100
AcDbEntity
  8
DETAIL
  6
CONTINUOUS
100
AcDbCircle
 10
243.8125103960163
 20
-171.5709064790812
 30
0.0
 40
0.4580258955822921
100
AcDbArc
 50
264.0231618623662
 51
345.2782887542624
  0
ARC
  5
19306
330
1E
100
AcDbEntity
  8
DETAIL
  6
CONTINUOUS
100
AcDbCircle
 10
244.6837901126082
 20
-171.5813710388283
 30
0.0
 40
0.4411958765896994
100
AcDbArc
 50
193.8924280315769
 51
278.1724350940846
  0
ARC
  5
19307
330
1E
100
AcDbEntity
  8
DETAIL
  6
CONTINUOUS
100
AcDbCircle
 10
245.825263986181
 20
-171.5814096984454
 30
0.0
 40
0.4411333751892939
100
AcDbArc
 50
261.8487961061412
 51
346.1111293280362
  0
ARC
  5
19308
330
1E
100
AcDbEntity
  8
DETAIL
  6
CONTINUOUS
100
AcDbCircle
 10
248.4608483461716
 20
-170.6488020133952
 30
0.0
 40
1.873740197001145
100
AcDbArc
 50
182.0688695259963
 51
203.6350989826336
  0
ARC
  5
19309
330
1E
100
AcDbEntity
  8
DETAIL
  6
CONTINUOUS
100
AcDbCircle
 10
242.0481551548828
 20
-170.6488031530715
 30
0.0
 40
1.873736533556753
100
AcDbArc
 50
336.3648900348446
 51
357.9311523667779
  0
ARC
  5
1930A
330
1E
100
AcDbEntity
  8
DETAIL
  6
CONTINUOUS
100
AcDbCircle
 10
245.8519161468148
 20
-171.8702130962447
 30
0.0
 40
0.9058395618070807
100
AcDbArc
 50
264.3488857532338
 51
350.0688060595861
  0
ARC
  5
1930B
330
1E
100
AcDbEntity
  8
DETAIL
  6
CONTINUOUS
100
AcDbCircle
 10
244.6570844462011
 20
-171.8702116115073
 30
0.0
 40
0.9058409810246523
100
AcDbArc
 50
189.9314979901563
 51
275.6510677296061
  0
LINE
  5
1930C
330
1E
100
AcDbEntity
  8
DETAIL
  6
CONTINUOUS
100
AcDbLine
 10
244.7462825234479
 20
-172.7716502316692
 30
0.0
 11
245.7627174774724
 21
-172.7716502316692
 31
0.0
  0
LINE
  5
1930D
330
1E
100
AcDbEntity
  8
DETAIL
  6
CONTINUOUS
100
AcDbLine
 10
255.7439912512844
 20
-169.4055668736518
 30
0.0
 11
255.7439912512844
 21
-171.1082142422164
 31
0.0
  0
LINE
  5
1930E
330
1E
100
AcDbEntity
  8
DETAIL
  6
CONTINUOUS
100
AcDbLine
 10
237.2998494358788
 20
-162.5969809382535
 30
0.0
 11
242.4666148799741
 21
-162.5957917371533
 31
0.0
  0
LINE
  5
1930F
330
1E
100
AcDbEntity
  8
DETAIL
  6
CONTINUOUS
100
AcDbLine
 10
248.0185447643278
 20
-162.5969809382535
 30
0.0
 11
253.2091505700673
 21
-162.5969809382535
 31
0.0
  0
LINE
  5
19310
330
1E
100
AcDbEntity
  8
DETAIL
  6
CONTINUOUS
100
AcDbLine
 10
254.7619490496607
 20
-168.8889006112995
 30
0.0
 11
254.967243967113
 21
-163.1419086484596
 31
0.0
  0
LINE
  5
19311
330
1E
100
AcDbEntity
  8
DETAIL
  6
CONTINUOUS
100
AcDbLine
 10
235.7470509512577
 20
-168.8889006112995
 30
0.0
 11
235.5417560338055
 21
-163.1419086484584
 31
0.0
  0
LINE
  5
19312
330
1E
100
AcDbEntity
  8
DETAIL
  6
CONTINUOUS
100
AcDbLine
 10
255.7439912512844
 20
-169.4055668736518
 30
0.0
 11
255.7439912512844
 21
-171.1082142422164
 31
0.0
  0
LINE
  5
19313
330
1E
100
AcDbEntity
  8
DETAIL
  6
CONTINUOUS
100
AcDbLine
 10
237.2998494358788
 20
-162.5969809382535
 30
0.0
 11
242.0866545273828
 21
-162.5958791901785
 31
0.0
  0
LINE
  5
19314
330
1E
100
AcDbEntity
  8
DETAIL
  6
CONTINUOUS
100
AcDbLine
 10
248.4223083614386
 20
-162.5969809382535
 30
0.0
 11
253.2091505700673
 21
-162.5969809382535
 31
0.0
  0
LINE
  5
19315
330
1E
100
AcDbEntity
  8
DETAIL
  6
CONTINUOUS
100
AcDbLine
 10
254.7619490496607
 20
-168.8889006112995
 30
0.0
 11
254.967243967113
 21
-163.1419086484596
 31
0.0
  0
LINE
  5
19316
330
1E
100
AcDbEntity
  8
DETAIL
  6
CONTINUOUS
100
AcDbLine
 10
235.7470509512577
 20
-168.8889006112995
 30
0.0
 11
235.5417560338055
 21
-163.1419086484584
 31
0.0
  0
LINE
  5
19317
330
1E
100
AcDbEntity
  8
DETAIL
  6
CONTINUOUS
100
AcDbLine
 10
244.7462825234369
 20
-172.7716502316688
 30
0.0
 11
244.7550065877921
 21
-143.5260629726776
 31
0.0
  0
LINE
  5
19318
330
1E
100
AcDbEntity
  8
DETAIL
  6
CONTINUOUS
100
AcDbLine
 10
245.7627174774724
 20
-172.7716502316688
 30
0.0
 11
245.7539934131209
 21
-143.5260629906906
 31
0.0
  0
LINE
  5
19319
330
1E
100
AcDbEntity
  8
DETAIL
  6
CONTINUOUS
100
AcDbLine
 10
246.7441822241899
 20
-172.0264390828696
 30
0.0
 11
246.7442825234437
 21
-171.4000037852956
 31
0.0
  0
LINE
  5
1931A
330
1E
100
AcDbEntity
  8
DETAIL
  6
CONTINUOUS
100
AcDbLine
 10
243.7648177999261
 20
-172.0264425778731
 30
0.0
 11
243.7647174774729
 21
-171.4000037852924
 31
0.0
  0
LINE
  5
1931B
330
1E
100
AcDbEntity
  8
DETAIL
  6
CONTINUOUS
100
AcDbLine
 10
245.762492686951
 20
-172.0180873786529
 30
0.0
 11
244.7462825234369
 21
-172.0180864541289
 31
0.0
  0
LINE
  5
1931C
330
1E
100
AcDbEntity
  8
DETAIL
  6
CONTINUOUS
100
AcDbLine
 10
238.3468203091806
 20
-174.3644437048678
 30
0.0
 11
252.1273714655953
 21
-174.4088896960984
 31
0.0
  0
ARC
  5
1931D
330
1E
100
AcDbEntity
  8
DETAIL
  6
CONTINUOUS
100
AcDbCircle
 10
235.4522322378134
 20
-145.2503140835259
 30
0.0
 40
9.303138114700622
100
AcDbArc
 50
341.1324446327767
 51
359.4887518888008
  0
ARC
  5
1931E
330
1E
100
AcDbEntity
  8
DETAIL
  6
CONTINUOUS
100
AcDbCircle
 10
255.0902406926333
 20
-145.2418091950443
 30
0.0
 40
9.33756323541516
100
AcDbArc
 50
181.1508954655483
 51
198.8505178721118
  0
LINE
  5
1931F
330
1E
100
AcDbEntity
  8
DETAIL
  6
CONTINUOUS
100
AcDbLine
 10
202.3828203087168
 20
-174.3644430563785
 30
0.0
 11
216.1633714651316
 21
-174.408889047609
 31
0.0
  0
ARC
  5
19320
330
1E
100
AcDbEntity
  8
DETAIL
  6
CONTINUOUS
100
AcDbCircle
 10
209.887916146351
 20
-171.8702124477553
 30
0.0
 40
0.9058395618070807
100
AcDbArc
 50
264.3488857532338
 51
350.0688060595861
  0
ARC
  5
19321
330
1E
100
AcDbEntity
  8
DETAIL
  6
CONTINUOUS
100
AcDbCircle
 10
210.7324892431233
 20
-171.5709026694065
 30
0.0
 40
0.4580256036283231
100
AcDbArc
 50
194.7217501057241
 51
275.9768903239495
  0
ARC
  5
19322
330
1E
100
AcDbEntity
  8
DETAIL
  6
CONTINUOUS
100
AcDbCircle
 10
210.4070912228717
 20
-165.0140250982289
 30
0.0
 40
2.92509978904237
100
AcDbArc
 50
275.2765866849069
 51
92.30395450675452
  0
LINE
  5
19323
330
1E
100
AcDbEntity
  8
DETAIL
  6
CONTINUOUS
100
AcDbLine
 10
209.7984926864874
 20
-172.0180867301636
 30
0.0
 11
208.7822825229731
 21
-172.0180858056394
 31
0.0
  0
LINE
  5
19324
330
1E
100
AcDbEntity
  8
DETAIL
  6
CONTINUOUS
100
AcDbLine
 10
207.8008177994624
 20
-172.0264419293838
 30
0.0
 11
207.800717477009
 21
-171.4000031368031
 31
0.0
  0
LINE
  5
19325
330
1E
100
AcDbEntity
  8
DETAIL
  6
CONTINUOUS
100
AcDbLine
 10
209.7987174770087
 20
-172.7716495831795
 30
0.0
 11
209.789993412657
 21
-143.5260623422013
 31
0.0
  0
LINE
  5
19326
330
1E
100
AcDbEntity
  8
DETAIL
  6
CONTINUOUS
100
AcDbLine
 10
208.7822825229731
 20
-172.7716495831795
 30
0.0
 11
208.7910065873284
 21
-143.5260623241881
 31
0.0
  0
LINE
  5
19327
330
1E
100
AcDbEntity
  8
DETAIL
  6
CONTINUOUS
100
AcDbLine
 10
199.7830509507939
 20
-168.88889996281
 30
0.0
 11
199.5777560333416
 21
-163.1419079999689
 31
0.0
  0
LINE
  5
19328
330
1E
100
AcDbEntity
  8
DETAIL
  6
CONTINUOUS
100
AcDbLine
 10
201.3358494354152
 20
-162.5969802897641
 30
0.0
 11
206.1226545269192
 21
-162.5958785416891
 31
0.0
  0
LINE
  5
19329
330
1E
100
AcDbEntity
  8
DETAIL
  6
CONTINUOUS
100
AcDbLine
 10
199.7830509507939
 20
-168.88889996281
 30
0.0
 11
199.5777560333416
 21
-163.1419079999689
 31
0.0
  0
LINE
  5
1932A
330
1E
100
AcDbEntity
  8
DETAIL
  6
CONTINUOUS
100
AcDbLine
 10
201.3358494354152
 20
-162.5969802897641
 30
0.0
 11
206.5026148795104
 21
-162.5957910886639
 31
0.0
  0
LINE
  5
1932B
330
1E
100
AcDbEntity
  8
DETAIL
  6
CONTINUOUS
100
AcDbLine
 10
208.782282522984
 20
-172.7716495831798
 30
0.0
 11
209.7987174770087
 21
-172.7716495831798
 31
0.0
  0
ARC
  5
1932C
330
1E
100
AcDbEntity
  8
DETAIL
  6
CONTINUOUS
100
AcDbCircle
 10
208.6930844457373
 20
-171.8702109630179
 30
0.0
 40
0.9058409810246523
100
AcDbArc
 50
189.9314979901563
 51
275.6510677296061
  0
ARC
  5
1932D
330
1E
100
AcDbEntity
  8
DETAIL
  6
CONTINUOUS
100
AcDbCircle
 10
206.0841551544189
 20
-170.6488025045821
 30
0.0
 40
1.873736533556753
100
AcDbArc
 50
336.3648900348446
 51
357.9311523667779
  0
ARC
  5
1932E
330
1E
100
AcDbEntity
  8
DETAIL
  6
CONTINUOUS
100
AcDbCircle
 10
209.8612639857174
 20
-171.5814090499559
 30
0.0
 40
0.4411333751892939
100
AcDbArc
 50
261.8487961061412
 51
346.1111293280362
  0
ARC
  5
1932F
330
1E
100
AcDbEntity
  8
DETAIL
  6
CONTINUOUS
100
AcDbCircle
 10
208.7197901121443
 20
-171.581370390339
 30
0.0
 40
0.4411958765896994
100
AcDbArc
 50
193.8924280315769
 51
278.1724350940846
  0
ARC
  5
19330
330
1E
100
AcDbEntity
  8
DETAIL
  6
CONTINUOUS
100
AcDbCircle
 10
207.8485103955526
 20
-171.5709058305918
 30
0.0
 40
0.4580258955822921
100
AcDbArc
 50
264.0231618623662
 51
345.2782887542624
  0
LINE
  5
19331
330
1E
100
AcDbEntity
  8
DETAIL
  6
CONTINUOUS
100
AcDbLine
 10
207.8006762809736
 20
-162.309484383841
 30
0.0
 11
207.9566703296705
 21
-170.7164450624908
 31
0.0
  0
ARC
  5
19332
330
1E
100
AcDbEntity
  8
DETAIL
  6
CONTINUOUS
100
AcDbCircle
 10
208.1938884793735
 20
-165.0067951763351
 30
0.0
 40
2.945054685461506
100
AcDbArc
 50
88.10062859974328
 51
264.3727778097368
  0
LINE
  5
19333
330
1E
100
AcDbEntity
  8
DETAIL
  6
CONTINUOUS
100
AcDbLine
 10
199.2909909362541
 20
-171.5413062851279
 30
0.0
 11
200.2982768714546
 21
-171.5413073064618
 31
0.0
  0
ARC
  5
19334
330
1E
100
AcDbEntity
  8
DETAIL
  6
CONTINUOUS
100
AcDbCircle
 10
199.304561391159
 20
-169.3883999628085
 30
0.0
 40
0.4994999999987614
100
AcDbArc
 50
90.0
 51
171.4381733824064
  0
LINE
  5
19335
330
1E
100
AcDbEntity
  8
DETAIL
  6
CONTINUOUS
100
AcDbLine
 10
198.8106279242082
 20
-169.3140361259946
 30
0.0
 11
198.8010087491701
 21
-169.4055662251606
 31
0.0
  0
LINE
  5
19336
330
1E
100
AcDbEntity
  8
DETAIL
  6
CONTINUOUS
100
AcDbLine
 10
198.8010087491701
 20
-169.4055662251606
 30
0.0
 11
198.8010087491701
 21
-171.108213593727
 31
0.0
  0
ARC
  5
19337
330
1E
100
AcDbEntity
  8
DETAIL
  6
CONTINUOUS
100
AcDbCircle
 10
199.262814810997
 20
-171.0794649380044
 30
0.0
 40
0.4627000366823176
100
AcDbArc
 50
183.5622177582161
 51
273.4911872440024
  0
ARC
  5
19338
330
1E
100
AcDbEntity
  8
DETAIL
  6
CONTINUOUS
100
AcDbCircle
 10
204.3971280954909
 20
-172.0530150855096
 30
0.0
 40
3.065963979627565
100
AcDbArc
 50
178.6791876201162
 51
228.9292821428444
  0
ARC
  5
19339
330
1E
100
AcDbEntity
  8
DETAIL
  6
CONTINUOUS
100
AcDbCircle
 10
201.481520145825
 20
-166.175477011878
 30
0.0
 40
3.581460420831991
100
AcDbArc
 50
92.33106579370632
 51
122.1109753310676
  0
LINE
  5
1933A
330
1E
100
AcDbEntity
  8
DETAIL
  6
CONTINUOUS
100
AcDbLine
 10
200.2935942563079
 20
-171.9823431345306
 30
0.0
 11
200.2935942563079
 21
-171.5413073017137
 31
0.0
  0
LINE
  5
1933B
330
1E
100
AcDbEntity
  8
DETAIL
  6
CONTINUOUS
100
AcDbLine
 10
210.2894999999926
 20
-148.2587774086127
 30
0.0
 11
210.2894999999926
 21
-162.0912898929533
 31
0.0
  0
LINE
  5
1933C
330
1E
100
AcDbEntity
  8
DETAIL
  6
CONTINUOUS
100
AcDbLine
 10
208.2914999999983
 20
-148.2587774086127
 30
0.0
 11
208.2914999999994
 21
-162.0633585639041
 31
0.0
  0
LINE
  5
1933D
330
1E
100
AcDbEntity
  8
DETAIL
  6
CONTINUOUS
100
AcDbLine
 10
199.7830509507939
 20
-168.88889996281
 30
0.0
 11
199.304561391159
 21
-168.88889996281
 31
0.0
  0
LINE
  5
1933E
330
1E
100
AcDbEntity
  8
DETAIL
  6
CONTINUOUS
100
AcDbLine
 10
199.7830509507939
 20
-168.88889996281
 30
0.0
 11
199.304561391159
 21
-168.88889996281
 31
0.0
  0
LINE
  5
1933F
330
1E
100
AcDbEntity
  8
DETAIL
  6
CONTINUOUS
100
AcDbLine
 10
200.2935942563079
 20
-171.9823431345306
 30
0.0
 11
201.3319787353915
 21
-171.9823431345306
 31
0.0
  0
LINE
  5
19340
330
1E
100
AcDbEntity
  8
DETAIL
  6
CONTINUOUS
100
AcDbLine
 10
200.2935942563079
 20
-171.9823431345306
 30
0.0
 11
201.3319787353915
 21
-171.9823431345306
 31
0.0
  0
LINE
  5
19341
330
1E
100
AcDbEntity
  8
DETAIL
  6
CONTINUOUS
100
AcDbLine
 10
210.780182223726
 20
-172.0264384343803
 30
0.0
 11
210.78028252298
 21
-171.4000031368063
 31
0.0
  0
LINE
  5
19342
330
1E
100
AcDbEntity
  8
DETAIL
  6
CONTINUOUS
100
AcDbLine
 10
218.797949049197
 20
-168.88889996281
 30
0.0
 11
219.0032439666491
 21
-163.1419079999703
 31
0.0
  0
LINE
  5
19343
330
1E
100
AcDbEntity
  8
DETAIL
  6
CONTINUOUS
100
AcDbLine
 10
212.458308360975
 20
-162.5969802897641
 30
0.0
 11
217.2451505696034
 21
-162.5969802897641
 31
0.0
  0
LINE
  5
19344
330
1E
100
AcDbEntity
  8
DETAIL
  6
CONTINUOUS
100
AcDbLine
 10
219.7799912508207
 20
-169.4055662251625
 30
0.0
 11
219.7799912508207
 21
-171.108213593727
 31
0.0
  0
LINE
  5
19345
330
1E
100
AcDbEntity
  8
DETAIL
  6
CONTINUOUS
100
AcDbLine
 10
218.797949049197
 20
-168.88889996281
 30
0.0
 11
219.0032439666491
 21
-163.1419079999703
 31
0.0
  0
LINE
  5
19346
330
1E
100
AcDbEntity
  8
DETAIL
  6
CONTINUOUS
100
AcDbLine
 10
212.0545447638642
 20
-162.5969802897641
 30
0.0
 11
217.2451505696034
 21
-162.5969802897641
 31
0.0
  0
LINE
  5
19347
330
1E
100
AcDbEntity
  8
DETAIL
  6
CONTINUOUS
100
AcDbLine
 10
219.7799912508207
 20
-169.4055662251625
 30
0.0
 11
219.7799912508207
 21
-171.108213593727
 31
0.0
  0
ARC
  5
19348
330
1E
100
AcDbEntity
  8
DETAIL
  6
CONTINUOUS
100
AcDbCircle
 10
212.4968483457077
 20
-170.6488013649058
 30
0.0
 40
1.873740197001145
100
AcDbArc
 50
182.0688695259963
 51
203.6350989826336
  0
LINE
  5
19349
330
1E
100
AcDbEntity
  8
DETAIL
  6
CONTINUOUS
100
AcDbLine
 10
210.7803251084178
 20
-162.3094865182578
 30
0.0
 11
210.6243295352405
 21
-170.7164447703989
 31
0.0
  0
LINE
  5
1934A
330
1E
100
AcDbEntity
  8
DETAIL
  6
CONTINUOUS
100
AcDbLine
 10
219.2900090637258
 20
-171.5413062851333
 30
0.0
 11
218.282723279858
 21
-171.541321518647
 31
0.0
  0
LINE
  5
1934B
330
1E
100
AcDbEntity
  8
DETAIL
  6
CONTINUOUS
100
AcDbLine
 10
218.282723279858
 20
-171.541321518647
 30
0.0
 11
218.2863927247844
 21
-171.8869311448746
 31
0.0
  0
LINE
  5
1934C
330
1E
100
AcDbEntity
  8
DETAIL
  6
CONTINUOUS
100
AcDbLine
 10
218.2863927247844
 20
-171.8869311448746
 30
0.0
 11
218.2874057436702
 21
-171.9823431345306
 31
0.0
  0
ARC
  5
1934D
330
1E
100
AcDbEntity
  8
DETAIL
  6
CONTINUOUS
100
AcDbCircle
 10
219.2630753482708
 20
-169.405643109343
 30
0.0
 40
0.5169159082676897
100
AcDbArc
 50
0.0085219646151027
 51
88.51862995785579
  0
ARC
  5
1934E
330
1E
100
AcDbEntity
  8
DETAIL
  6
CONTINUOUS
100
AcDbCircle
 10
219.3181851432082
 20
-171.0794648862114
 30
0.0
 40
0.4627000855988304
100
AcDbArc
 50
266.508818804114
 51
356.4377761929571
  0
ARC
  5
1934F
330
1E
100
AcDbEntity
  8
DETAIL
  6
CONTINUOUS
100
AcDbCircle
 10
213.8995639288705
 20
-171.9006462581518
 30
0.0
 40
3.378772921061041
100
AcDbArc
 50
312.0677427595781
 51
358.6144844428809
  0
ARC
  5
19350
330
1E
100
AcDbEntity
  8
DETAIL
  6
CONTINUOUS
100
AcDbCircle
 10
216.7815868019905
 20
-167.2010913542751
 30
0.0
 40
4.627389119255126
100
AcDbArc
 50
61.30739406424525
 51
84.25056471303333
  0
LINE
  5
19351
330
1E
100
AcDbEntity
  8
DETAIL
  6
CONTINUOUS
100
AcDbLine
 10
218.797949049197
 20
-168.88889996281
 30
0.0
 11
219.2764386088192
 21
-168.88889996281
 31
0.0
  0
LINE
  5
19352
330
1E
100
AcDbEntity
  8
DETAIL
  6
CONTINUOUS
100
AcDbLine
 10
218.797949049197
 20
-168.88889996281
 30
0.0
 11
219.2764386088192
 21
-168.88889996281
 31
0.0
  0
LINE
  5
19353
330
1E
100
AcDbEntity
  8
DETAIL
  6
CONTINUOUS
100
AcDbLine
 10
217.2773490126918
 20
-171.9823431345309
 30
0.0
 11
218.2874057436702
 21
-171.9823431345306
 31
0.0
  0
ARC
  5
19354
330
1E
100
AcDbEntity
  8
DETAIL
  6
CONTINUOUS
100
AcDbCircle
 10
219.1262406921695
 20
-145.241808546555
 30
0.0
 40
9.33756323541516
100
AcDbArc
 50
181.1508954655483
 51
198.8505178721118
  0
ARC
  5
19355
330
1E
100
AcDbEntity
  8
DETAIL
  6
CONTINUOUS
100
AcDbCircle
 10
199.4882322373495
 20
-145.2503134350366
 30
0.0
 40
9.303138114700622
100
AcDbArc
 50
341.1324446327767
 51
359.4887518888008
  0
ARC
  5
19356
330
1E
100
AcDbEntity
  8
DETAIL
  6
CONTINUOUS
100
AcDbCircle
 10
163.5242322373533
 20
-145.2503116821295
 30
0.0
 40
9.303138114700622
100
AcDbArc
 50
341.1324446327767
 51
359.4887518888008
  0
ARC
  5
19357
330
1E
100
AcDbEntity
  8
DETAIL
  6
CONTINUOUS
100
AcDbCircle
 10
183.1622406921733
 20
-145.2418067936478
 30
0.0
 40
9.33756323541516
100
AcDbArc
 50
181.1508954655483
 51
198.8505178721118
  0
LINE
  5
19358
330
1E
100
AcDbEntity
  8
DETAIL
  6
CONTINUOUS
100
AcDbLine
 10
172.327500000002
 20
-148.2587756557055
 30
0.0
 11
172.3275000000031
 21
-162.0633568109969
 31
0.0
  0
LINE
  5
19359
330
1E
100
AcDbEntity
  8
DETAIL
  6
CONTINUOUS
100
AcDbLine
 10
174.3254999999962
 20
-148.2587756557055
 30
0.0
 11
174.3254999999963
 21
-162.091288140046
 31
0.0
  0
LINE
  5
1935A
330
1E
100
AcDbEntity
  8
DETAIL
  6
CONTINUOUS
100
AcDbLine
 10
172.8182825229769
 20
-172.7716478302723
 30
0.0
 11
172.827006587332
 21
-143.5260605712809
 31
0.0
  0
LINE
  5
1935B
330
1E
100
AcDbEntity
  8
DETAIL
  6
CONTINUOUS
100
AcDbLine
 10
173.8347174770124
 20
-172.7716478302723
 30
0.0
 11
173.8259934126608
 21
-143.5260605892941
 31
0.0
  0
LINE
  5
1935C
330
1E
100
AcDbEntity
  8
DETAIL
  6
CONTINUOUS
100
AcDbLine
 10
181.3133490126953
 20
-171.9823413816236
 30
0.0
 11
182.3234057436739
 21
-171.9823413816234
 31
0.0
  0
LINE
  5
1935D
330
1E
100
AcDbEntity
  8
DETAIL
  6
CONTINUOUS
100
AcDbLine
 10
182.8339490492007
 20
-168.8888982099028
 30
0.0
 11
183.3124386088229
 21
-168.8888982099028
 31
0.0
  0
LINE
  5
1935E
330
1E
100
AcDbEntity
  8
DETAIL
  6
CONTINUOUS
100
AcDbLine
 10
182.8339490492007
 20
-168.8888982099028
 30
0.0
 11
183.3124386088229
 21
-168.8888982099028
 31
0.0
  0
ARC
  5
1935F
330
1E
100
AcDbEntity
  8
DETAIL
  6
CONTINUOUS
100
AcDbCircle
 10
180.8175868019943
 20
-167.2010896013681
 30
0.0
 40
4.627389119255126
100
AcDbArc
 50
61.30739406424525
 51
84.25056471303333
  0
ARC
  5
19360
330
1E
100
AcDbEntity
  8
DETAIL
  6
CONTINUOUS
100
AcDbCircle
 10
177.9355639288742
 20
-171.9006445052445
 30
0.0
 40
3.378772921061041
100
AcDbArc
 50
312.0677427595781
 51
358.6144844428809
  0
ARC
  5
19361
330
1E
100
AcDbEntity
  8
DETAIL
  6
CONTINUOUS
100
AcDbCircle
 10
183.3541851432119
 20
-171.0794631333041
 30
0.0
 40
0.4627000855988304
100
AcDbArc
 50
266.508818804114
 51
356.4377761929571
  0
ARC
  5
19362
330
1E
100
AcDbEntity
  8
DETAIL
  6
CONTINUOUS
100
AcDbCircle
 10
183.2990753482745
 20
-169.4056413564358
 30
0.0
 40
0.5169159082676897
100
AcDbArc
 50
0.0085219646151027
 51
88.51862995785579
  0
LINE
  5
19363
330
1E
100
AcDbEntity
  8
DETAIL
  6
CONTINUOUS
100
AcDbLine
 10
182.322392724788
 20
-171.8869293919675
 30
0.0
 11
182.3234057436739
 21
-171.9823413816234
 31
0.0
  0
LINE
  5
19364
330
1E
100
AcDbEntity
  8
DETAIL
  6
CONTINUOUS
100
AcDbLine
 10
182.3187232798617
 20
-171.5413197657398
 30
0.0
 11
182.322392724788
 21
-171.8869293919675
 31
0.0
  0
LINE
  5
19365
330
1E
100
AcDbEntity
  8
DETAIL
  6
CONTINUOUS
100
AcDbLine
 10
183.3260090637295
 20
-171.5413045322261
 30
0.0
 11
182.3187232798617
 21
-171.5413197657398
 31
0.0
  0
LINE
  5
19366
330
1E
100
AcDbEntity
  8
DETAIL
  6
CONTINUOUS
100
AcDbLine
 10
174.8163251084215
 20
-162.3094847653505
 30
0.0
 11
174.6603295352441
 21
-170.7164430174916
 31
0.0
  0
ARC
  5
19367
330
1E
100
AcDbEntity
  8
DETAIL
  6
CONTINUOUS
100
AcDbCircle
 10
176.5328483457115
 20
-170.6487996119985
 30
0.0
 40
1.873740197001145
100
AcDbArc
 50
182.0688695259963
 51
203.6350989826336
  0
LINE
  5
19368
330
1E
100
AcDbEntity
  8
DETAIL
  6
CONTINUOUS
100
AcDbLine
 10
183.8159912508243
 20
-169.4055644722553
 30
0.0
 11
183.8159912508243
 21
-171.1082118408199
 31
0.0
  0
LINE
  5
19369
330
1E
100
AcDbEntity
  8
DETAIL
  6
CONTINUOUS
100
AcDbLine
 10
176.0905447638679
 20
-162.5969785368569
 30
0.0
 11
181.2811505696071
 21
-162.5969785368569
 31
0.0
  0
LINE
  5
1936A
330
1E
100
AcDbEntity
  8
DETAIL
  6
CONTINUOUS
100
AcDbLine
 10
182.8339490492006
 20
-168.8888982099028
 30
0.0
 11
183.0392439666529
 21
-163.1419062470631
 31
0.0
  0
LINE
  5
1936B
330
1E
100
AcDbEntity
  8
DETAIL
  6
CONTINUOUS
100
AcDbLine
 10
183.8159912508243
 20
-169.4055644722553
 30
0.0
 11
183.8159912508243
 21
-171.1082118408199
 31
0.0
  0
LINE
  5
1936C
330
1E
100
AcDbEntity
  8
DETAIL
  6
CONTINUOUS
100
AcDbLine
 10
176.4943083609787
 20
-162.5969785368569
 30
0.0
 11
181.2811505696071
 21
-162.5969785368569
 31
0.0
  0
LINE
  5
1936D
330
1E
100
AcDbEntity
  8
DETAIL
  6
CONTINUOUS
100
AcDbLine
 10
182.8339490492006
 20
-168.8888982099028
 30
0.0
 11
183.0392439666529
 21
-163.1419062470631
 31
0.0
  0
LINE
  5
1936E
330
1E
100
AcDbEntity
  8
DETAIL
  6
CONTINUOUS
100
AcDbLine
 10
174.8161822237298
 20
-172.026436681473
 30
0.0
 11
174.8162825229837
 21
-171.4000013838989
 31
0.0
  0
LINE
  5
1936F
330
1E
100
AcDbEntity
  8
DETAIL
  6
CONTINUOUS
100
AcDbLine
 10
164.3295942563116
 20
-171.9823413816234
 30
0.0
 11
165.3679787353953
 21
-171.9823413816234
 31
0.0
  0
LINE
  5
19370
330
1E
100
AcDbEntity
  8
DETAIL
  6
CONTINUOUS
100
AcDbLine
 10
164.3295942563116
 20
-171.9823413816234
 30
0.0
 11
165.3679787353953
 21
-171.9823413816234
 31
0.0
  0
LINE
  5
19371
330
1E
100
AcDbEntity
  8
DETAIL
  6
CONTINUOUS
100
AcDbLine
 10
163.8190509507975
 20
-168.8888982099028
 30
0.0
 11
163.3405613911626
 21
-168.8888982099028
 31
0.0
  0
LINE
  5
19372
330
1E
100
AcDbEntity
  8
DETAIL
  6
CONTINUOUS
100
AcDbLine
 10
163.8190509507975
 20
-168.8888982099028
 30
0.0
 11
163.3405613911626
 21
-168.8888982099028
 31
0.0
  0
LINE
  5
19373
330
1E
100
AcDbEntity
  8
DETAIL
  6
CONTINUOUS
100
AcDbLine
 10
164.3295942563116
 20
-171.9823413816234
 30
0.0
 11
164.3295942563116
 21
-171.5413055488065
 31
0.0
  0
ARC
  5
19374
330
1E
100
AcDbEntity
  8
DETAIL
  6
CONTINUOUS
100
AcDbCircle
 10
165.5175201458286
 20
-166.1754752589709
 30
0.0
 40
3.581460420831991
100
AcDbArc
 50
92.33106579370632
 51
122.1109753310676
  0
ARC
  5
19375
330
1E
100
AcDbEntity
  8
DETAIL
  6
CONTINUOUS
100
AcDbCircle
 10
168.4331280954946
 20
-172.0530133326024
 30
0.0
 40
3.065963979627565
100
AcDbArc
 50
178.6791876201162
 51
228.9292821428444
  0
ARC
  5
19376
330
1E
100
AcDbEntity
  8
DETAIL
  6
CONTINUOUS
100
AcDbCircle
 10
163.2988148110006
 20
-171.0794631850971
 30
0.0
 40
0.4627000366823176
100
AcDbArc
 50
183.5622177582161
 51
273.4911872440024
  0
LINE
  5
19377
330
1E
100
AcDbEntity
  8
DETAIL
  6
CONTINUOUS
100
AcDbLine
 10
162.8370087491739
 20
-169.4055644722535
 30
0.0
 11
162.8370087491739
 21
-171.1082118408199
 31
0.0
  0
LINE
  5
19378
330
1E
100
AcDbEntity
  8
DETAIL
  6
CONTINUOUS
100
AcDbLine
 10
162.8466279242119
 20
-169.3140343730875
 30
0.0
 11
162.8370087491739
 21
-169.4055644722535
 31
0.0
  0
ARC
  5
19379
330
1E
100
AcDbEntity
  8
DETAIL
  6
CONTINUOUS
100
AcDbCircle
 10
163.3405613911626
 20
-169.3883982099013
 30
0.0
 40
0.4994999999987614
100
AcDbArc
 50
90.0
 51
171.4381733824064
  0
LINE
  5
1937A
330
1E
100
AcDbEntity
  8
DETAIL
  6
CONTINUOUS
100
AcDbLine
 10
163.3269909362579
 20
-171.5413045322206
 30
0.0
 11
164.3342768714583
 21
-171.5413055535545
 31
0.0
  0
ARC
  5
1937B
330
1E
100
AcDbEntity
  8
DETAIL
  6
CONTINUOUS
100
AcDbCircle
 10
172.2298884793771
 20
-165.006793423428
 30
0.0
 40
2.945054685461506
100
AcDbArc
 50
88.10062859974328
 51
264.3727778097368
  0
LINE
  5
1937C
330
1E
100
AcDbEntity
  8
DETAIL
  6
CONTINUOUS
100
AcDbLine
 10
171.8366762809773
 20
-162.3094826309339
 30
0.0
 11
171.992670329674
 21
-170.7164433095835
 31
0.0
  0
ARC
  5
1937D
330
1E
100
AcDbEntity
  8
DETAIL
  6
CONTINUOUS
100
AcDbCircle
 10
171.8845103955563
 20
-171.5709040776847
 30
0.0
 40
0.4580258955822921
100
AcDbArc
 50
264.0231618623662
 51
345.2782887542624
  0
ARC
  5
1937E
330
1E
100
AcDbEntity
  8
DETAIL
  6
CONTINUOUS
100
AcDbCircle
 10
172.755790112148
 20
-171.5813686374318
 30
0.0
 40
0.4411958765896994
100
AcDbArc
 50
193.8924280315769
 51
278.1724350940846
  0
ARC
  5
1937F
330
1E
100
AcDbEntity
  8
DETAIL
  6
CONTINUOUS
100
AcDbCircle
 10
173.897263985721
 20
-171.5814072970488
 30
0.0
 40
0.4411333751892939
100
AcDbArc
 50
261.8487961061412
 51
346.1111293280362
  0
ARC
  5
19380
330
1E
100
AcDbEntity
  8
DETAIL
  6
CONTINUOUS
100
AcDbCircle
 10
170.1201551544226
 20
-170.648800751675
 30
0.0
 40
1.873736533556753
100
AcDbArc
 50
336.3648900348446
 51
357.9311523667779
  0
ARC
  5
19381
330
1E
100
AcDbEntity
  8
DETAIL
  6
CONTINUOUS
100
AcDbCircle
 10
172.729084445741
 20
-171.8702092101107
 30
0.0
 40
0.9058409810246523
100
AcDbArc
 50
189.9314979901563
 51
275.6510677296061
  0
LINE
  5
19382
330
1E
100
AcDbEntity
  8
DETAIL
  6
CONTINUOUS
100
AcDbLine
 10
172.8182825229878
 20
-172.7716478302728
 30
0.0
 11
173.8347174770124
 21
-172.7716478302728
 31
0.0
  0
LINE
  5
19383
330
1E
100
AcDbEntity
  8
DETAIL
  6
CONTINUOUS
100
AcDbLine
 10
165.3718494354188
 20
-162.5969785368569
 30
0.0
 11
170.5386148795141
 21
-162.5957893357568
 31
0.0
  0
LINE
  5
19384
330
1E
100
AcDbEntity
  8
DETAIL
  6
CONTINUOUS
100
AcDbLine
 10
163.8190509507975
 20
-168.8888982099028
 30
0.0
 11
163.6137560333454
 21
-163.1419062470618
 31
0.0
  0
LINE
  5
19385
330
1E
100
AcDbEntity
  8
DETAIL
  6
CONTINUOUS
100
AcDbLine
 10
165.3718494354188
 20
-162.5969785368569
 30
0.0
 11
170.1586545269228
 21
-162.5958767887819
 31
0.0
  0
LINE
  5
19386
330
1E
100
AcDbEntity
  8
DETAIL
  6
CONTINUOUS
100
AcDbLine
 10
163.8190509507975
 20
-168.8888982099028
 30
0.0
 11
163.6137560333454
 21
-163.1419062470618
 31
0.0
  0
LINE
  5
19387
330
1E
100
AcDbEntity
  8
DETAIL
  6
CONTINUOUS
100
AcDbLine
 10
171.8368177994661
 20
-172.0264401764765
 30
0.0
 11
171.8367174770128
 21
-171.4000013838959
 31
0.0
  0
LINE
  5
19388
330
1E
100
AcDbEntity
  8
DETAIL
  6
CONTINUOUS
100
AcDbLine
 10
173.834492686491
 20
-172.0180849772563
 30
0.0
 11
172.8182825229769
 21
-172.0180840527323
 31
0.0
  0
ARC
  5
19389
330
1E
100
AcDbEntity
  8
DETAIL
  6
CONTINUOUS
100
AcDbCircle
 10
174.4430912228754
 20
-165.0140233453217
 30
0.0
 40
2.92509978904237
100
AcDbArc
 50
275.2765866849069
 51
92.30395450675452
  0
ARC
  5
1938A
330
1E
100
AcDbEntity
  8
DETAIL
  6
CONTINUOUS
100
AcDbCircle
 10
174.7684892431269
 20
-171.5709009164994
 30
0.0
 40
0.4580256036283231
100
AcDbArc
 50
194.7217501057241
 51
275.9768903239495
  0
ARC
  5
1938B
330
1E
100
AcDbEntity
  8
DETAIL
  6
CONTINUOUS
100
AcDbCircle
 10
173.9239161463546
 20
-171.8702106948481
 30
0.0
 40
0.9058395618070807
100
AcDbArc
 50
264.3488857532338
 51
350.0688060595861
  0
LINE
  5
1938C
330
1E
100
AcDbEntity
  8
DETAIL
  6
CONTINUOUS
100
AcDbLine
 10
166.4188203087204
 20
-174.3644413034713
 30
0.0
 11
180.1993714651351
 21
-174.4088872947018
 31
0.0
  0
LINE
  5
1938F
330
1E
100
AcDbEntity
  8
DETAIL
  6
CONTINUOUS
100
AcDbLine
 10
130.4548203087223
 20
-174.3644406549819
 30
0.0
 11
144.235371465137
 21
-174.4088866462124
 31
0.0
  0
ARC
  5
19390
330
1E
100
AcDbEntity
  8
DETAIL
  6
CONTINUOUS
100
AcDbCircle
 10
137.9599161463564
 20
-171.8702100463587
 30
0.0
 40
0.9058395618070807
100
AcDbArc
 50
264.3488857532338
 51
350.0688060595861
  0
ARC
  5
19391
330
1E
100
AcDbEntity
  8
DETAIL
  6
CONTINUOUS
100
AcDbCircle
 10
138.8044892431288
 20
-171.57090026801
 30
0.0
 40
0.4580256036283231
100
AcDbArc
 50
194.7217501057241
 51
275.9768903239495
  0
ARC
  5
19392
330
1E
100
AcDbEntity
  8
DETAIL
  6
CONTINUOUS
100
AcDbCircle
 10
138.4790912228772
 20
-165.0140226968323
 30
0.0
 40
2.92509978904237
100
AcDbArc
 50
275.2765866849069
 51
92.30395450675452
  0
LINE
  5
19393
330
1E
100
AcDbEntity
  8
DETAIL
  6
CONTINUOUS
100
AcDbLine
 10
137.8704926864928
 20
-172.018084328767
 30
0.0
 11
136.8542825229787
 21
-172.018083404243
 31
0.0
  0
LINE
  5
19394
330
1E
100
AcDbEntity
  8
DETAIL
  6
CONTINUOUS
100
AcDbLine
 10
135.872817799468
 20
-172.0264395279873
 30
0.0
 11
135.8727174770147
 21
-171.4000007354065
 31
0.0
  0
LINE
  5
19395
330
1E
100
AcDbEntity
  8
DETAIL
  6
CONTINUOUS
100
AcDbLine
 10
127.8550509507995
 20
-168.8888975614134
 30
0.0
 11
127.6497560333472
 21
-163.1419055985723
 31
0.0
  0
LINE
  5
19396
330
1E
100
AcDbEntity
  8
DETAIL
  6
CONTINUOUS
100
AcDbLine
 10
129.4078494354206
 20
-162.5969778883676
 30
0.0
 11
134.1946545269246
 21
-162.5958761402924
 31
0.0
  0
LINE
  5
19397
330
1E
100
AcDbEntity
  8
DETAIL
  6
CONTINUOUS
100
AcDbLine
 10
127.8550509507995
 20
-168.8888975614134
 30
0.0
 11
127.6497560333472
 21
-163.1419055985723
 31
0.0
  0
LINE
  5
19398
330
1E
100
AcDbEntity
  8
DETAIL
  6
CONTINUOUS
100
AcDbLine
 10
129.4078494354206
 20
-162.5969778883676
 30
0.0
 11
134.5746148795159
 21
-162.5957886872674
 31
0.0
  0
LINE
  5
19399
330
1E
100
AcDbEntity
  8
DETAIL
  6
CONTINUOUS
100
AcDbLine
 10
136.8542825229897
 20
-172.7716471817834
 30
0.0
 11
137.8707174770142
 21
-172.7716471817834
 31
0.0
  0
ARC
  5
1939A
330
1E
100
AcDbEntity
  8
DETAIL
  6
CONTINUOUS
100
AcDbCircle
 10
136.765084445743
 20
-171.8702085616214
 30
0.0
 40
0.9058409810246523
100
AcDbArc
 50
189.9314979901563
 51
275.6510677296061
  0
ARC
  5
1939B
330
1E
100
AcDbEntity
  8
DETAIL
  6
CONTINUOUS
100
AcDbCircle
 10
134.1561551544246
 20
-170.6488001031857
 30
0.0
 40
1.873736533556753
100
AcDbArc
 50
336.3648900348446
 51
357.9311523667779
  0
ARC
  5
1939C
330
1E
100
AcDbEntity
  8
DETAIL
  6
CONTINUOUS
100
AcDbCircle
 10
137.9332639857228
 20
-171.5814066485594
 30
0.0
 40
0.4411333751892939
100
AcDbArc
 50
261.8487961061412
 51
346.1111293280362
  0
ARC
  5
1939D
330
1E
100
AcDbEntity
  8
DETAIL
  6
CONTINUOUS
100
AcDbCircle
 10
136.79179011215
 20
-171.5813679889424
 30
0.0
 40
0.4411958765896994
100
AcDbArc
 50
193.8924280315769
 51
278.1724350940846
  0
ARC
  5
1939E
330
1E
100
AcDbEntity
  8
DETAIL
  6
CONTINUOUS
100
AcDbCircle
 10
135.9205103955582
 20
-171.5709034291953
 30
0.0
 40
0.4580258955822921
100
AcDbArc
 50
264.0231618623662
 51
345.2782887542624
  0
LINE
  5
1939F
330
1E
100
AcDbEntity
  8
DETAIL
  6
CONTINUOUS
100
AcDbLine
 10
135.8726762809791
 20
-162.3094819824444
 30
0.0
 11
136.028670329676
 21
-170.7164426610943
 31
0.0
  0
ARC
  5
193A0
330
1E
100
AcDbEntity
  8
DETAIL
  6
CONTINUOUS
100
AcDbCircle
 10
136.2658884793791
 20
-165.0067927749386
 30
0.0
 40
2.945054685461506
100
AcDbArc
 50
88.10062859974328
 51
264.3727778097368
  0
LINE
  5
193A1
330
1E
100
AcDbEntity
  8
DETAIL
  6
CONTINUOUS
100
AcDbLine
 10
127.3629909362598
 20
-171.5413038837312
 30
0.0
 11
128.37027687146
 21
-171.5413049050652
 31
0.0
  0
ARC
  5
193A2
330
1E
100
AcDbEntity
  8
DETAIL
  6
CONTINUOUS
100
AcDbCircle
 10
127.3765613911645
 20
-169.388397561412
 30
0.0
 40
0.4994999999987614
100
AcDbArc
 50
90.0
 51
171.4381733824064
  0
LINE
  5
193A3
330
1E
100
AcDbEntity
  8
DETAIL
  6
CONTINUOUS
100
AcDbLine
 10
126.8826279242139
 20
-169.3140337245981
 30
0.0
 11
126.8730087491757
 21
-169.405563823764
 31
0.0
  0
LINE
  5
193A4
330
1E
100
AcDbEntity
  8
DETAIL
  6
CONTINUOUS
100
AcDbLine
 10
126.8730087491757
 20
-169.405563823764
 30
0.0
 11
126.8730087491757
 21
-171.1082111923304
 31
0.0
  0
ARC
  5
193A5
330
1E
100
AcDbEntity
  8
DETAIL
  6
CONTINUOUS
100
AcDbCircle
 10
127.3348148110025
 20
-171.0794625366079
 30
0.0
 40
0.4627000366823176
100
AcDbArc
 50
183.5622177582161
 51
273.4911872440024
  0
ARC
  5
193A6
330
1E
100
AcDbEntity
  8
DETAIL
  6
CONTINUOUS
100
AcDbCircle
 10
132.4691280954965
 20
-172.053012684113
 30
0.0
 40
3.065963979627565
100
AcDbArc
 50
178.6791876201162
 51
228.9292821428444
  0
ARC
  5
193A7
330
1E
100
AcDbEntity
  8
DETAIL
  6
CONTINUOUS
100
AcDbCircle
 10
129.5535201458305
 20
-166.1754746104814
 30
0.0
 40
3.581460420831991
100
AcDbArc
 50
92.33106579370632
 51
122.1109753310676
  0
LINE
  5
193A8
330
1E
100
AcDbEntity
  8
DETAIL
  6
CONTINUOUS
100
AcDbLine
 10
128.3655942563135
 20
-171.982340733134
 30
0.0
 11
128.3655942563135
 21
-171.5413049003171
 31
0.0
  0
LINE
  5
193A9
330
1E
100
AcDbEntity
  8
DETAIL
  6
CONTINUOUS
100
AcDbLine
 10
127.8550509507995
 20
-168.8888975614134
 30
0.0
 11
127.3765613911645
 21
-168.8888975614134
 31
0.0
  0
LINE
  5
193AA
330
1E
100
AcDbEntity
  8
DETAIL
  6
CONTINUOUS
100
AcDbLine
 10
127.8550509507995
 20
-168.8888975614134
 30
0.0
 11
127.3765613911645
 21
-168.8888975614134
 31
0.0
  0
LINE
  5
193AB
330
1E
100
AcDbEntity
  8
DETAIL
  6
CONTINUOUS
100
AcDbLine
 10
128.3655942563135
 20
-171.982340733134
 30
0.0
 11
129.403978735397
 21
-171.982340733134
 31
0.0
  0
LINE
  5
193AC
330
1E
100
AcDbEntity
  8
DETAIL
  6
CONTINUOUS
100
AcDbLine
 10
128.3655942563135
 20
-171.982340733134
 30
0.0
 11
129.403978735397
 21
-171.982340733134
 31
0.0
  0
LINE
  5
193AD
330
1E
100
AcDbEntity
  8
DETAIL
  6
CONTINUOUS
100
AcDbLine
 10
138.8521822237317
 20
-172.0264360329838
 30
0.0
 11
138.8522825229856
 21
-171.4000007354096
 31
0.0
  0
LINE
  5
193AE
330
1E
100
AcDbEntity
  8
DETAIL
  6
CONTINUOUS
100
AcDbLine
 10
146.8699490492026
 20
-168.8888975614134
 30
0.0
 11
147.0752439666548
 21
-163.1419055985738
 31
0.0
  0
LINE
  5
193AF
330
1E
100
AcDbEntity
  8
DETAIL
  6
CONTINUOUS
100
AcDbLine
 10
140.5303083609804
 20
-162.5969778883676
 30
0.0
 11
145.317150569609
 21
-162.5969778883676
 31
0.0
  0
LINE
  5
193B0
330
1E
100
AcDbEntity
  8
DETAIL
  6
CONTINUOUS
100
AcDbLine
 10
147.8519912508263
 20
-169.4055638237658
 30
0.0
 11
147.8519912508263
 21
-171.1082111923304
 31
0.0
  0
LINE
  5
193B1
330
1E
100
AcDbEntity
  8
DETAIL
  6
CONTINUOUS
100
AcDbLine
 10
146.8699490492026
 20
-168.8888975614134
 30
0.0
 11
147.0752439666548
 21
-163.1419055985738
 31
0.0
  0
LINE
  5
193B2
330
1E
100
AcDbEntity
  8
DETAIL
  6
CONTINUOUS
100
AcDbLine
 10
140.1265447638697
 20
-162.5969778883676
 30
0.0
 11
145.317150569609
 21
-162.5969778883676
 31
0.0
  0
LINE
  5
193B3
330
1E
100
AcDbEntity
  8
DETAIL
  6
CONTINUOUS
100
AcDbLine
 10
147.8519912508263
 20
-169.4055638237658
 30
0.0
 11
147.8519912508263
 21
-171.1082111923304
 31
0.0
  0
ARC
  5
193B4
330
1E
100
AcDbEntity
  8
DETAIL
  6
CONTINUOUS
100
AcDbCircle
 10
140.5688483457133
 20
-170.6487989635091
 30
0.0
 40
1.873740197001145
100
AcDbArc
 50
182.0688695259963
 51
203.6350989826336
  0
LINE
  5
193B5
330
1E
100
AcDbEntity
  8
DETAIL
  6
CONTINUOUS
100
AcDbLine
 10
138.8523251084234
 20
-162.3094841168612
 30
0.0
 11
138.696329535246
 21
-170.7164423690023
 31
0.0
  0
LINE
  5
193B6
330
1E
100
AcDbEntity
  8
DETAIL
  6
CONTINUOUS
100
AcDbLine
 10
147.3620090637314
 20
-171.5413038837368
 30
0.0
 11
146.3547232798636
 21
-171.5413191172505
 31
0.0
  0
LINE
  5
193B7
330
1E
100
AcDbEntity
  8
DETAIL
  6
CONTINUOUS
100
AcDbLine
 10
146.3547232798636
 20
-171.5413191172505
 30
0.0
 11
146.3583927247899
 21
-171.886928743478
 31
0.0
  0
LINE
  5
193B8
330
1E
100
AcDbEntity
  8
DETAIL
  6
CONTINUOUS
100
AcDbLine
 10
146.3583927247899
 20
-171.886928743478
 30
0.0
 11
146.3594057436757
 21
-171.982340733134
 31
0.0
  0
ARC
  5
193B9
330
1E
100
AcDbEntity
  8
DETAIL
  6
CONTINUOUS
100
AcDbCircle
 10
147.3350753482764
 20
-169.4056407079465
 30
0.0
 40
0.5169159082676897
100
AcDbArc
 50
0.0085219646151027
 51
88.51862995785579
  0
ARC
  5
193BA
330
1E
100
AcDbEntity
  8
DETAIL
  6
CONTINUOUS
100
AcDbCircle
 10
147.3901851432136
 20
-171.0794624848149
 30
0.0
 40
0.4627000855988304
100
AcDbArc
 50
266.508818804114
 51
356.4377761929571
  0
ARC
  5
193BB
330
1E
100
AcDbEntity
  8
DETAIL
  6
CONTINUOUS
100
AcDbCircle
 10
141.971563928876
 20
-171.9006438567553
 30
0.0
 40
3.378772921061041
100
AcDbArc
 50
312.0677427595781
 51
358.6144844428809
  0
ARC
  5
193BC
330
1E
100
AcDbEntity
  8
DETAIL
  6
CONTINUOUS
100
AcDbCircle
 10
144.8535868019961
 20
-167.2010889528786
 30
0.0
 40
4.627389119255126
100
AcDbArc
 50
61.30739406424525
 51
84.25056471303333
  0
LINE
  5
193BD
330
1E
100
AcDbEntity
  8
DETAIL
  6
CONTINUOUS
100
AcDbLine
 10
146.8699490492026
 20
-168.8888975614134
 30
0.0
 11
147.3484386088248
 21
-168.8888975614134
 31
0.0
  0
LINE
  5
193BE
330
1E
100
AcDbEntity
  8
DETAIL
  6
CONTINUOUS
100
AcDbLine
 10
146.8699490492026
 20
-168.8888975614134
 30
0.0
 11
147.3484386088248
 21
-168.8888975614134
 31
0.0
  0
LINE
  5
193BF
330
1E
100
AcDbEntity
  8
DETAIL
  6
CONTINUOUS
100
AcDbLine
 10
145.3493490126973
 20
-171.9823407331343
 30
0.0
 11
146.3594057436757
 21
-171.982340733134
 31
0.0
  0
LINE
  5
193C0
330
1E
100
AcDbEntity
  8
DETAIL
  6
CONTINUOUS
100
AcDbLine
 10
137.8707174770142
 20
-172.7716471817829
 30
0.0
 11
137.8619934126626
 21
-143.5260599408046
 31
0.0
  0
LINE
  5
193C1
330
1E
100
AcDbEntity
  8
DETAIL
  6
CONTINUOUS
100
AcDbLine
 10
136.8542825229787
 20
-172.7716471817829
 30
0.0
 11
136.8630065873339
 21
-143.5260599227916
 31
0.0
  0
LINE
  5
193C2
330
1E
100
AcDbEntity
  8
DETAIL
  6
CONTINUOUS
100
AcDbLine
 10
138.361499999998
 20
-148.258775007216
 30
0.0
 11
138.3614999999982
 21
-162.0912874915566
 31
0.0
  0
LINE
  5
193C3
330
1E
100
AcDbEntity
  8
DETAIL
  6
CONTINUOUS
100
AcDbLine
 10
136.3635000000039
 20
-148.258775007216
 30
0.0
 11
136.3635000000049
 21
-162.0633561625074
 31
0.0
  0
ARC
  5
193C4
330
1E
100
AcDbEntity
  8
DETAIL
  6
CONTINUOUS
100
AcDbCircle
 10
147.198240692175
 20
-145.2418061451585
 30
0.0
 40
9.33756323541516
100
AcDbArc
 50
181.1508954655483
 51
198.8505178721118
  0
ARC
  5
193C5
330
1E
100
AcDbEntity
  8
DETAIL
  6
CONTINUOUS
100
AcDbCircle
 10
127.560232237355
 20
-145.2503110336401
 30
0.0
 40
9.303138114700622
100
AcDbArc
 50
341.1324446327767
 51
359.4887518888008
  0
ARC
  5
193FD
330
1E
100
AcDbEntity
  8
DETAIL
  6
CONTINUOUS
100
AcDbCircle
 10
91.59623223735705
 20
-145.2503103851508
 30
0.0
 40
9.303138114700622
100
AcDbArc
 50
341.1324446327767
 51
359.4887518888008
  0
ARC
  5
193FE
330
1E
100
AcDbEntity
  8
DETAIL
  6
CONTINUOUS
100
AcDbCircle
 10
111.2342406921769
 20
-145.2418054966691
 30
0.0
 40
9.33756323541516
100
AcDbArc
 50
181.1508954655483
 51
198.8505178721118
  0
LINE
  5
193FF
330
1E
100
AcDbEntity
  8
DETAIL
  6
CONTINUOUS
100
AcDbLine
 10
100.3995000000057
 20
-148.2587743587268
 30
0.0
 11
100.3995000000069
 21
-162.0633555140181
 31
0.0
  0
LINE
  5
19400
330
1E
100
AcDbEntity
  8
DETAIL
  6
CONTINUOUS
100
AcDbLine
 10
102.3974999999999
 20
-148.2587743587268
 30
0.0
 11
102.3974999999999
 21
-162.0912868430673
 31
0.0
  0
LINE
  5
19401
330
1E
100
AcDbEntity
  8
DETAIL
  6
CONTINUOUS
100
AcDbLine
 10
100.8902825229806
 20
-172.7716465332936
 30
0.0
 11
100.8990065873357
 21
-143.5260592743024
 31
0.0
  0
LINE
  5
19402
330
1E
100
AcDbEntity
  8
DETAIL
  6
CONTINUOUS
100
AcDbLine
 10
101.906717477016
 20
-172.7716465332936
 30
0.0
 11
101.8979934126645
 21
-143.5260592923154
 31
0.0
  0
LINE
  5
19403
330
1E
100
AcDbEntity
  8
DETAIL
  6
CONTINUOUS
100
AcDbLine
 10
109.3853490126992
 20
-171.982340084645
 30
0.0
 11
110.3954057436776
 21
-171.9823400846447
 31
0.0
  0
LINE
  5
19404
330
1E
100
AcDbEntity
  8
DETAIL
  6
CONTINUOUS
100
AcDbLine
 10
110.9059490492045
 20
-168.8888969129241
 30
0.0
 11
111.3844386088266
 21
-168.8888969129241
 31
0.0
  0
LINE
  5
19405
330
1E
100
AcDbEntity
  8
DETAIL
  6
CONTINUOUS
100
AcDbLine
 10
110.9059490492045
 20
-168.8888969129241
 30
0.0
 11
111.3844386088266
 21
-168.8888969129241
 31
0.0
  0
ARC
  5
19406
330
1E
100
AcDbEntity
  8
DETAIL
  6
CONTINUOUS
100
AcDbCircle
 10
108.889586801998
 20
-167.2010883043894
 30
0.0
 40
4.627389119255126
100
AcDbArc
 50
61.30739406424525
 51
84.25056471303333
  0
ARC
  5
19407
330
1E
100
AcDbEntity
  8
DETAIL
  6
CONTINUOUS
100
AcDbCircle
 10
106.0075639288779
 20
-171.9006432082658
 30
0.0
 40
3.378772921061041
100
AcDbArc
 50
312.0677427595781
 51
358.6144844428809
  0
ARC
  5
19408
330
1E
100
AcDbEntity
  8
DETAIL
  6
CONTINUOUS
100
AcDbCircle
 10
111.4261851432156
 20
-171.0794618363254
 30
0.0
 40
0.4627000855988304
100
AcDbArc
 50
266.508818804114
 51
356.4377761929571
  0
ARC
  5
19409
330
1E
100
AcDbEntity
  8
DETAIL
  6
CONTINUOUS
100
AcDbCircle
 10
111.3710753482781
 20
-169.405640059457
 30
0.0
 40
0.5169159082676897
100
AcDbArc
 50
0.0085219646151027
 51
88.51862995785579
  0
LINE
  5
1940A
330
1E
100
AcDbEntity
  8
DETAIL
  6
CONTINUOUS
100
AcDbLine
 10
110.3943927247919
 20
-171.8869280949888
 30
0.0
 11
110.3954057436776
 21
-171.9823400846447
 31
0.0
  0
LINE
  5
1940B
330
1E
100
AcDbEntity
  8
DETAIL
  6
CONTINUOUS
100
AcDbLine
 10
110.3907232798654
 20
-171.5413184687612
 30
0.0
 11
110.3943927247919
 21
-171.8869280949888
 31
0.0
  0
LINE
  5
1940C
330
1E
100
AcDbEntity
  8
DETAIL
  6
CONTINUOUS
100
AcDbLine
 10
111.3980090637332
 20
-171.5413032352475
 30
0.0
 11
110.3907232798654
 21
-171.5413184687612
 31
0.0
  0
LINE
  5
1940D
330
1E
100
AcDbEntity
  8
DETAIL
  6
CONTINUOUS
100
AcDbLine
 10
102.8883251084252
 20
-162.3094834683719
 30
0.0
 11
102.732329535248
 21
-170.7164417205129
 31
0.0
  0
ARC
  5
1940E
330
1E
100
AcDbEntity
  8
DETAIL
  6
CONTINUOUS
100
AcDbCircle
 10
104.6048483457151
 20
-170.6487983150199
 30
0.0
 40
1.873740197001145
100
AcDbArc
 50
182.0688695259963
 51
203.6350989826336
  0
LINE
  5
1940F
330
1E
100
AcDbEntity
  8
DETAIL
  6
CONTINUOUS
100
AcDbLine
 10
111.8879912508282
 20
-169.4055631752766
 30
0.0
 11
111.8879912508282
 21
-171.1082105438411
 31
0.0
  0
LINE
  5
19410
330
1E
100
AcDbEntity
  8
DETAIL
  6
CONTINUOUS
100
AcDbLine
 10
104.1625447638715
 20
-162.5969772398782
 30
0.0
 11
109.3531505696109
 21
-162.5969772398782
 31
0.0
  0
LINE
  5
19411
330
1E
100
AcDbEntity
  8
DETAIL
  6
CONTINUOUS
100
AcDbLine
 10
110.9059490492045
 20
-168.8888969129241
 30
0.0
 11
111.1112439666567
 21
-163.1419049500844
 31
0.0
  0
LINE
  5
19412
330
1E
100
AcDbEntity
  8
DETAIL
  6
CONTINUOUS
100
AcDbLine
 10
111.8879912508282
 20
-169.4055631752766
 30
0.0
 11
111.8879912508282
 21
-171.1082105438411
 31
0.0
  0
LINE
  5
19413
330
1E
100
AcDbEntity
  8
DETAIL
  6
CONTINUOUS
100
AcDbLine
 10
104.5663083609823
 20
-162.5969772398782
 30
0.0
 11
109.3531505696109
 21
-162.5969772398782
 31
0.0
  0
LINE
  5
19414
330
1E
100
AcDbEntity
  8
DETAIL
  6
CONTINUOUS
100
AcDbLine
 10
110.9059490492045
 20
-168.8888969129241
 30
0.0
 11
111.1112439666567
 21
-163.1419049500844
 31
0.0
  0
LINE
  5
19415
330
1E
100
AcDbEntity
  8
DETAIL
  6
CONTINUOUS
100
AcDbLine
 10
102.8881822237335
 20
-172.0264353844943
 30
0.0
 11
102.8882825229874
 21
-171.4000000869204
 31
0.0
  0
LINE
  5
19416
330
1E
100
AcDbEntity
  8
DETAIL
  6
CONTINUOUS
100
AcDbLine
 10
92.40159425631551
 20
-171.9823400846447
 30
0.0
 11
93.43997873539905
 21
-171.9823400846448
 31
0.0
  0
LINE
  5
19417
330
1E
100
AcDbEntity
  8
DETAIL
  6
CONTINUOUS
100
AcDbLine
 10
92.40159425631551
 20
-171.9823400846447
 30
0.0
 11
93.43997873539905
 21
-171.9823400846448
 31
0.0
  0
LINE
  5
19418
330
1E
100
AcDbEntity
  8
DETAIL
  6
CONTINUOUS
100
AcDbLine
 10
91.89105095080142
 20
-168.8888969129241
 30
0.0
 11
91.41256139116647
 21
-168.8888969129241
 31
0.0
  0
LINE
  5
19419
330
1E
100
AcDbEntity
  8
DETAIL
  6
CONTINUOUS
100
AcDbLine
 10
91.89105095080142
 20
-168.8888969129241
 30
0.0
 11
91.41256139116647
 21
-168.8888969129241
 31
0.0
  0
LINE
  5
1941A
330
1E
100
AcDbEntity
  8
DETAIL
  6
CONTINUOUS
100
AcDbLine
 10
92.40159425631551
 20
-171.9823400846447
 30
0.0
 11
92.40159425631551
 21
-171.5413042518279
 31
0.0
  0
ARC
  5
1941B
330
1E
100
AcDbEntity
  8
DETAIL
  6
CONTINUOUS
100
AcDbCircle
 10
93.58952014583243
 20
-166.1754739619921
 30
0.0
 40
3.581460420831991
100
AcDbArc
 50
92.33106579370632
 51
122.1109753310676
  0
ARC
  5
1941C
330
1E
100
AcDbEntity
  8
DETAIL
  6
CONTINUOUS
100
AcDbCircle
 10
96.50512809549852
 20
-172.0530120356237
 30
0.0
 40
3.065963979627565
100
AcDbArc
 50
178.6791876201162
 51
228.9292821428444
  0
ARC
  5
1941D
330
1E
100
AcDbEntity
  8
DETAIL
  6
CONTINUOUS
100
AcDbCircle
 10
91.37081481100445
 20
-171.0794618881184
 30
0.0
 40
0.4627000366823176
100
AcDbArc
 50
183.5622177582161
 51
273.4911872440024
  0
LINE
  5
1941E
330
1E
100
AcDbEntity
  8
DETAIL
  6
CONTINUOUS
100
AcDbLine
 10
90.90900874917769
 20
-169.4055631752748
 30
0.0
 11
90.90900874917769
 21
-171.1082105438411
 31
0.0
  0
LINE
  5
1941F
330
1E
100
AcDbEntity
  8
DETAIL
  6
CONTINUOUS
100
AcDbLine
 10
90.91862792421578
 20
-169.3140330761088
 30
0.0
 11
90.90900874917769
 21
-169.4055631752748
 31
0.0
  0
ARC
  5
19420
330
1E
100
AcDbEntity
  8
DETAIL
  6
CONTINUOUS
100
AcDbCircle
 10
91.41256139116647
 20
-169.3883969129228
 30
0.0
 40
0.4994999999987614
100
AcDbArc
 50
90.0
 51
171.4381733824064
  0
LINE
  5
19421
330
1E
100
AcDbEntity
  8
DETAIL
  6
CONTINUOUS
100
AcDbLine
 10
91.39899093626169
 20
-171.5413032352419
 30
0.0
 11
92.40627687146204
 21
-171.5413042565758
 31
0.0
  0
ARC
  5
19422
330
1E
100
AcDbEntity
  8
DETAIL
  6
CONTINUOUS
100
AcDbCircle
 10
100.3018884793809
 20
-165.0067921264493
 30
0.0
 40
2.945054685461506
100
AcDbArc
 50
88.10062859974328
 51
264.3727778097368
  0
LINE
  5
19423
330
1E
100
AcDbEntity
  8
DETAIL
  6
CONTINUOUS
100
AcDbLine
 10
99.9086762809811
 20
-162.3094813339552
 30
0.0
 11
100.0646703296779
 21
-170.7164420126049
 31
0.0
  0
ARC
  5
19424
330
1E
100
AcDbEntity
  8
DETAIL
  6
CONTINUOUS
100
AcDbCircle
 10
99.95651039556014
 20
-171.570902780706
 30
0.0
 40
0.4580258955822921
100
AcDbArc
 50
264.0231618623662
 51
345.2782887542624
  0
ARC
  5
19425
330
1E
100
AcDbEntity
  8
DETAIL
  6
CONTINUOUS
100
AcDbCircle
 10
100.8277901121517
 20
-171.581367340453
 30
0.0
 40
0.4411958765896994
100
AcDbArc
 50
193.8924280315769
 51
278.1724350940846
  0
ARC
  5
19426
330
1E
100
AcDbEntity
  8
DETAIL
  6
CONTINUOUS
100
AcDbCircle
 10
101.9692639857247
 20
-171.5814060000701
 30
0.0
 40
0.4411333751892939
100
AcDbArc
 50
261.8487961061412
 51
346.1111293280362
  0
ARC
  5
19427
330
1E
100
AcDbEntity
  8
DETAIL
  6
CONTINUOUS
100
AcDbCircle
 10
98.19215515442644
 20
-170.6487994546963
 30
0.0
 40
1.873736533556753
100
AcDbArc
 50
336.3648900348446
 51
357.9311523667779
  0
ARC
  5
19428
330
1E
100
AcDbEntity
  8
DETAIL
  6
CONTINUOUS
100
AcDbCircle
 10
100.8010844457448
 20
-171.870207913132
 30
0.0
 40
0.9058409810246523
100
AcDbArc
 50
189.9314979901563
 51
275.6510677296061
  0
LINE
  5
19429
330
1E
100
AcDbEntity
  8
DETAIL
  6
CONTINUOUS
100
AcDbLine
 10
100.8902825229915
 20
-172.7716465332941
 30
0.0
 11
101.906717477016
 21
-172.7716465332941
 31
0.0
  0
LINE
  5
1942A
330
1E
100
AcDbEntity
  8
DETAIL
  6
CONTINUOUS
100
AcDbLine
 10
93.44384943542259
 20
-162.5969772398782
 30
0.0
 11
98.6106148795179
 21
-162.595788038778
 31
0.0
  0
LINE
  5
1942B
330
1E
100
AcDbEntity
  8
DETAIL
  6
CONTINUOUS
100
AcDbLine
 10
91.89105095080135
 20
-168.8888969129241
 30
0.0
 11
91.6857560333492
 21
-163.1419049500831
 31
0.0
  0
LINE
  5
1942C
330
1E
100
AcDbEntity
  8
DETAIL
  6
CONTINUOUS
100
AcDbLine
 10
93.44384943542259
 20
-162.5969772398782
 30
0.0
 11
98.23065452692659
 21
-162.5958754918031
 31
0.0
  0
LINE
  5
1942D
330
1E
100
AcDbEntity
  8
DETAIL
  6
CONTINUOUS
100
AcDbLine
 10
91.89105095080135
 20
-168.8888969129241
 30
0.0
 11
91.6857560333492
 21
-163.1419049500831
 31
0.0
  0
LINE
  5
1942E
330
1E
100
AcDbEntity
  8
DETAIL
  6
CONTINUOUS
100
AcDbLine
 10
99.90881779946994
 20
-172.026438879498
 30
0.0
 11
99.90871747701657
 21
-171.4000000869171
 31
0.0
  0
LINE
  5
1942F
330
1E
100
AcDbEntity
  8
DETAIL
  6
CONTINUOUS
100
AcDbLine
 10
101.9064926864947
 20
-172.0180836802776
 30
0.0
 11
100.8902825229806
 21
-172.0180827557536
 31
0.0
  0
ARC
  5
19430
330
1E
100
AcDbEntity
  8
DETAIL
  6
CONTINUOUS
100
AcDbCircle
 10
102.515091222879
 20
-165.0140220483429
 30
0.0
 40
2.92509978904237
100
AcDbArc
 50
275.2765866849069
 51
92.30395450675452
  0
ARC
  5
19431
330
1E
100
AcDbEntity
  8
DETAIL
  6
CONTINUOUS
100
AcDbCircle
 10
102.8404892431308
 20
-171.5708996195206
 30
0.0
 40
0.4580256036283231
100
AcDbArc
 50
194.7217501057241
 51
275.9768903239495
  0
ARC
  5
19432
330
1E
100
AcDbEntity
  8
DETAIL
  6
CONTINUOUS
100
AcDbCircle
 10
101.9959161463584
 20
-171.8702093978694
 30
0.0
 40
0.9058395618070807
100
AcDbArc
 50
264.3488857532338
 51
350.0688060595861
  0
LINE
  5
19433
330
1E
100
AcDbEntity
  8
DETAIL
  6
CONTINUOUS
100
AcDbLine
 10
94.4908203087243
 20
-174.3644400064925
 30
0.0
 11
108.271371465139
 21
-174.408885997723
 31
0.0
  0
LINE
  5
19435
330
1E
100
AcDbEntity
  8
DETAIL
  6
CONTINUOUS
100
AcDbLine
 10
14.5708203091699
 20
-174.364438565405
 30
0.0
 11
28.35137146558463
 21
-174.4088845566357
 31
0.0
  0
ARC
  5
19436
330
1E
100
AcDbEntity
  8
DETAIL
  6
CONTINUOUS
100
AcDbCircle
 10
22.07591614680403
 20
-171.870207956782
 30
0.0
 40
0.9058395618070807
100
AcDbArc
 50
264.3488857532338
 51
350.0688060595861
  0
ARC
  5
19437
330
1E
100
AcDbEntity
  8
DETAIL
  6
CONTINUOUS
100
AcDbCircle
 10
22.92048924357641
 20
-171.5708981784332
 30
0.0
 40
0.4580256036283231
100
AcDbArc
 50
194.7217501057241
 51
275.9768903239495
  0
ARC
  5
19438
330
1E
100
AcDbEntity
  8
DETAIL
  6
CONTINUOUS
100
AcDbCircle
 10
22.59509122332473
 20
-165.0140206072554
 30
0.0
 40
2.92509978904237
100
AcDbArc
 50
275.2765866849069
 51
92.30395450675452
  0
LINE
  5
19439
330
1E
100
AcDbEntity
  8
DETAIL
  6
CONTINUOUS
100
AcDbLine
 10
21.98649268694043
 20
-172.0180822391903
 30
0.0
 11
20.97028252342624
 21
-172.0180813146661
 31
0.0
  0
LINE
  5
1943A
330
1E
100
AcDbEntity
  8
DETAIL
  6
CONTINUOUS
100
AcDbLine
 10
19.98881779991552
 20
-172.0264374384104
 30
0.0
 11
19.98871747746216
 21
-171.3999986458297
 31
0.0
  0
LINE
  5
1943B
330
1E
100
AcDbEntity
  8
DETAIL
  6
CONTINUOUS
100
AcDbLine
 10
11.97105095124696
 20
-168.8888954718368
 30
0.0
 11
11.76575603379478
 21
-163.1419035089956
 31
0.0
  0
LINE
  5
1943C
330
1E
100
AcDbEntity
  8
DETAIL
  6
CONTINUOUS
100
AcDbLine
 10
13.52384943586821
 20
-162.5969757987909
 30
0.0
 11
18.31065452737219
 21
-162.5958740507158
 31
0.0
  0
LINE
  5
1943D
330
1E
100
AcDbEntity
  8
DETAIL
  6
CONTINUOUS
100
AcDbLine
 10
11.97105095124696
 20
-168.8888954718368
 30
0.0
 11
11.76575603379478
 21
-163.1419035089956
 31
0.0
  0
LINE
  5
1943E
330
1E
100
AcDbEntity
  8
DETAIL
  6
CONTINUOUS
100
AcDbLine
 10
13.52384943586821
 20
-162.5969757987909
 30
0.0
 11
18.6906148799635
 21
-162.5957865976905
 31
0.0
  0
LINE
  5
1943F
330
1E
100
AcDbEntity
  8
DETAIL
  6
CONTINUOUS
100
AcDbLine
 10
20.97028252343716
 20
-172.7716450922066
 30
0.0
 11
21.98671747746174
 21
-172.7716450922066
 31
0.0
  0
ARC
  5
19440
330
1E
100
AcDbEntity
  8
DETAIL
  6
CONTINUOUS
100
AcDbCircle
 10
20.88108444619046
 20
-171.8702064720446
 30
0.0
 40
0.9058409810246523
100
AcDbArc
 50
189.9314979901563
 51
275.6510677296061
  0
ARC
  5
19441
330
1E
100
AcDbEntity
  8
DETAIL
  6
CONTINUOUS
100
AcDbCircle
 10
18.27215515487204
 20
-170.6487980136088
 30
0.0
 40
1.873736533556753
100
AcDbArc
 50
336.3648900348446
 51
357.9311523667779
  0
ARC
  5
19442
330
1E
100
AcDbEntity
  8
DETAIL
  6
CONTINUOUS
100
AcDbCircle
 10
22.04926398617044
 20
-171.5814045589826
 30
0.0
 40
0.4411333751892939
100
AcDbArc
 50
261.8487961061412
 51
346.1111293280362
  0
ARC
  5
19443
330
1E
100
AcDbEntity
  8
DETAIL
  6
CONTINUOUS
100
AcDbCircle
 10
20.90779011259745
 20
-171.5813658993656
 30
0.0
 40
0.4411958765896994
100
AcDbArc
 50
193.8924280315769
 51
278.1724350940846
  0
ARC
  5
19444
330
1E
100
AcDbEntity
  8
DETAIL
  6
CONTINUOUS
100
AcDbCircle
 10
20.03651039600572
 20
-171.5709013396184
 30
0.0
 40
0.4580258955822921
100
AcDbArc
 50
264.0231618623662
 51
345.2782887542624
  0
LINE
  5
19445
330
1E
100
AcDbEntity
  8
DETAIL
  6
CONTINUOUS
100
AcDbLine
 10
19.9886762814267
 20
-162.3094798928676
 30
0.0
 11
20.14467033012351
 21
-170.7164405715174
 31
0.0
  0
ARC
  5
19446
330
1E
100
AcDbEntity
  8
DETAIL
  6
CONTINUOUS
100
AcDbCircle
 10
20.38188847982655
 20
-165.0067906853618
 30
0.0
 40
2.945054685461506
100
AcDbArc
 50
88.10062859974328
 51
264.3727778097368
  0
LINE
  5
19447
330
1E
100
AcDbEntity
  8
DETAIL
  6
CONTINUOUS
100
AcDbLine
 10
11.4789909367073
 20
-171.5413017941545
 30
0.0
 11
12.48627687190764
 21
-171.5413028154884
 31
0.0
  0
ARC
  5
19448
330
1E
100
AcDbEntity
  8
DETAIL
  6
CONTINUOUS
100
AcDbCircle
 10
11.49256139161207
 20
-169.3883954718353
 30
0.0
 40
0.4994999999987614
100
AcDbArc
 50
90.0
 51
171.4381733824064
  0
LINE
  5
19449
330
1E
100
AcDbEntity
  8
DETAIL
  6
CONTINUOUS
100
AcDbLine
 10
10.99862792466136
 20
-169.3140316350213
 30
0.0
 11
10.98900874962327
 21
-169.4055617341873
 31
0.0
  0
LINE
  5
1944A
330
1E
100
AcDbEntity
  8
DETAIL
  6
CONTINUOUS
100
AcDbLine
 10
10.98900874962327
 20
-169.4055617341873
 30
0.0
 11
10.98900874962327
 21
-171.1082091027537
 31
0.0
  0
ARC
  5
1944B
330
1E
100
AcDbEntity
  8
DETAIL
  6
CONTINUOUS
100
AcDbCircle
 10
11.45081481145007
 20
-171.0794604470311
 30
0.0
 40
0.4627000366823176
100
AcDbArc
 50
183.5622177582161
 51
273.4911872440024
  0
ARC
  5
1944C
330
1E
100
AcDbEntity
  8
DETAIL
  6
CONTINUOUS
100
AcDbCircle
 10
16.58512809594411
 20
-172.0530105945363
 30
0.0
 40
3.065963979627565
100
AcDbArc
 50
178.6791876201162
 51
228.9292821428444
  0
ARC
  5
1944D
330
1E
100
AcDbEntity
  8
DETAIL
  6
CONTINUOUS
100
AcDbCircle
 10
13.66952014627804
 20
-166.1754725209048
 30
0.0
 40
3.581460420831991
100
AcDbArc
 50
92.33106579370632
 51
122.1109753310676
  0
LINE
  5
1944E
330
1E
100
AcDbEntity
  8
DETAIL
  6
CONTINUOUS
100
AcDbLine
 10
12.48159425676112
 20
-171.9823386435573
 30
0.0
 11
12.48159425676112
 21
-171.5413028107404
 31
0.0
  0
LINE
  5
1944F
330
1E
100
AcDbEntity
  8
DETAIL
  6
CONTINUOUS
100
AcDbLine
 10
11.97105095124703
 20
-168.8888954718368
 30
0.0
 11
11.49256139161207
 21
-168.8888954718368
 31
0.0
  0
LINE
  5
19450
330
1E
100
AcDbEntity
  8
DETAIL
  6
CONTINUOUS
100
AcDbLine
 10
11.97105095124703
 20
-168.8888954718368
 30
0.0
 11
11.49256139161207
 21
-168.8888954718368
 31
0.0
  0
LINE
  5
19451
330
1E
100
AcDbEntity
  8
DETAIL
  6
CONTINUOUS
100
AcDbLine
 10
12.48159425676112
 20
-171.9823386435573
 30
0.0
 11
13.51997873584463
 21
-171.9823386435573
 31
0.0
  0
LINE
  5
19452
330
1E
100
AcDbEntity
  8
DETAIL
  6
CONTINUOUS
100
AcDbLine
 10
12.48159425676112
 20
-171.9823386435573
 30
0.0
 11
13.51997873584463
 21
-171.9823386435573
 31
0.0
  0
LINE
  5
19453
330
1E
100
AcDbEntity
  8
DETAIL
  6
CONTINUOUS
100
AcDbLine
 10
22.96818222417913
 20
-172.0264339434069
 30
0.0
 11
22.9682825234331
 21
-171.3999986458329
 31
0.0
  0
LINE
  5
19454
330
1E
100
AcDbEntity
  8
DETAIL
  6
CONTINUOUS
100
AcDbLine
 10
30.98594904965011
 20
-168.8888954718368
 30
0.0
 11
31.19124396710231
 21
-163.141903508997
 31
0.0
  0
LINE
  5
19455
330
1E
100
AcDbEntity
  8
DETAIL
  6
CONTINUOUS
100
AcDbLine
 10
24.64630836142805
 20
-162.5969757987909
 30
0.0
 11
29.43315057005657
 21
-162.5969757987909
 31
0.0
  0
LINE
  5
19456
330
1E
100
AcDbEntity
  8
DETAIL
  6
CONTINUOUS
100
AcDbLine
 10
31.9679912512738
 20
-169.4055617341891
 30
0.0
 11
31.9679912512738
 21
-171.1082091027537
 31
0.0
  0
LINE
  5
19457
330
1E
100
AcDbEntity
  8
DETAIL
  6
CONTINUOUS
100
AcDbLine
 10
30.98594904965011
 20
-168.8888954718368
 30
0.0
 11
31.19124396710231
 21
-163.141903508997
 31
0.0
  0
LINE
  5
19458
330
1E
100
AcDbEntity
  8
DETAIL
  6
CONTINUOUS
100
AcDbLine
 10
24.24254476431723
 20
-162.5969757987909
 30
0.0
 11
29.43315057005657
 21
-162.5969757987909
 31
0.0
  0
LINE
  5
19459
330
1E
100
AcDbEntity
  8
DETAIL
  6
CONTINUOUS
100
AcDbLine
 10
31.9679912512738
 20
-169.4055617341891
 30
0.0
 11
31.9679912512738
 21
-171.1082091027537
 31
0.0
  0
ARC
  5
1945A
330
1E
100
AcDbEntity
  8
DETAIL
  6
CONTINUOUS
100
AcDbCircle
 10
24.68484834616083
 20
-170.6487968739325
 30
0.0
 40
1.873740197001145
100
AcDbArc
 50
182.0688695259963
 51
203.6350989826336
  0
LINE
  5
1945B
330
1E
100
AcDbEntity
  8
DETAIL
  6
CONTINUOUS
100
AcDbLine
 10
22.96832510887087
 20
-162.3094820272845
 30
0.0
 11
22.8123295356936
 21
-170.7164402794255
 31
0.0
  0
LINE
  5
1945C
330
1E
100
AcDbEntity
  8
DETAIL
  6
CONTINUOUS
100
AcDbLine
 10
31.47800906417888
 20
-171.54130179416
 30
0.0
 11
30.47072328031116
 21
-171.5413170276738
 31
0.0
  0
LINE
  5
1945D
330
1E
100
AcDbEntity
  8
DETAIL
  6
CONTINUOUS
100
AcDbLine
 10
30.47072328031116
 20
-171.5413170276738
 30
0.0
 11
30.47439272523751
 21
-171.8869266539013
 31
0.0
  0
LINE
  5
1945E
330
1E
100
AcDbEntity
  8
DETAIL
  6
CONTINUOUS
100
AcDbLine
 10
30.47439272523751
 20
-171.8869266539013
 30
0.0
 11
30.47540574412323
 21
-171.9823386435573
 31
0.0
  0
ARC
  5
1945F
330
1E
100
AcDbEntity
  8
DETAIL
  6
CONTINUOUS
100
AcDbCircle
 10
31.45107534872385
 20
-169.4056386183697
 30
0.0
 40
0.5169159082676897
100
AcDbArc
 50
0.0085219646151027
 51
88.51862995785579
  0
ARC
  5
19460
330
1E
100
AcDbEntity
  8
DETAIL
  6
CONTINUOUS
100
AcDbCircle
 10
31.50618514366124
 20
-171.0794603952381
 30
0.0
 40
0.4627000855988304
100
AcDbArc
 50
266.508818804114
 51
356.4377761929571
  0
ARC
  5
19461
330
1E
100
AcDbEntity
  8
DETAIL
  6
CONTINUOUS
100
AcDbCircle
 10
26.08756392932355
 20
-171.9006417671784
 30
0.0
 40
3.378772921061041
100
AcDbArc
 50
312.0677427595781
 51
358.6144844428809
  0
ARC
  5
19462
330
1E
100
AcDbEntity
  8
DETAIL
  6
CONTINUOUS
100
AcDbCircle
 10
28.9695868024437
 20
-167.2010868633019
 30
0.0
 40
4.627389119255126
100
AcDbArc
 50
61.30739406424525
 51
84.25056471303333
  0
LINE
  5
19463
330
1E
100
AcDbEntity
  8
DETAIL
  6
CONTINUOUS
100
AcDbLine
 10
30.98594904965017
 20
-168.8888954718366
 30
0.0
 11
31.46443860927229
 21
-168.8888954718368
 31
0.0
  0
LINE
  5
19464
330
1E
100
AcDbEntity
  8
DETAIL
  6
CONTINUOUS
100
AcDbLine
 10
30.98594904965017
 20
-168.8888954718366
 30
0.0
 11
31.46443860927229
 21
-168.8888954718368
 31
0.0
  0
LINE
  5
19465
330
1E
100
AcDbEntity
  8
DETAIL
  6
CONTINUOUS
100
AcDbLine
 10
29.46534901314482
 20
-171.9823386435575
 30
0.0
 11
30.47540574412323
 21
-171.9823386435573
 31
0.0
  0
LINE
  5
19466
330
1E
100
AcDbEntity
  8
DETAIL
  6
CONTINUOUS
100
AcDbLine
 10
21.98671747746174
 20
-172.771645092206
 30
0.0
 11
21.97799341311019
 21
-143.5260578512279
 31
0.0
  0
LINE
  5
19467
330
1E
100
AcDbEntity
  8
DETAIL
  6
CONTINUOUS
100
AcDbLine
 10
20.97028252342624
 20
-172.771645092206
 30
0.0
 11
20.97900658778144
 21
-143.5260578332148
 31
0.0
  0
LINE
  5
19468
330
1E
100
AcDbEntity
  8
DETAIL
  6
CONTINUOUS
100
AcDbLine
 10
22.47750000044561
 20
-148.2587729176393
 30
0.0
 11
22.47750000044566
 21
-162.0912854019799
 31
0.0
  0
LINE
  5
19469
330
1E
100
AcDbEntity
  8
DETAIL
  6
CONTINUOUS
100
AcDbLine
 10
20.47950000045148
 20
-148.2587729176393
 30
0.0
 11
20.4795000004525
 21
-162.0633540729308
 31
0.0
  0
ARC
  5
1946A
330
1E
100
AcDbEntity
  8
DETAIL
  6
CONTINUOUS
100
AcDbCircle
 10
31.31424069262266
 20
-145.2418040555816
 30
0.0
 40
9.33756323541516
100
AcDbArc
 50
181.1508954655483
 51
198.8505178721118
  0
ARC
  5
1946B
330
1E
100
AcDbEntity
  8
DETAIL
  6
CONTINUOUS
100
AcDbCircle
 10
11.67623223780265
 20
-145.2503089440632
 30
0.0
 40
9.303138114700622
100
AcDbArc
 50
341.1324446327767
 51
359.4887518888008
  0
LINE
  5
1946C
330
1E
100
AcDbEntity
  8
DETAIL
  6
CONTINUOUS
100
AcDbLine
 10
-15.48449999999228
 20
-148.2587774086127
 30
0.0
 11
-15.48449999999126
 21
-162.0633585639041
 31
0.0
  0
LINE
  5
1946D
330
1E
100
AcDbEntity
  8
DETAIL
  6
CONTINUOUS
100
AcDbLine
 10
-13.48649999999816
 20
-148.2587774086127
 30
0.0
 11
-13.4864999999981
 21
-162.0912898929533
 31
0.0
  0
LINE
  5
1946E
330
1E
100
AcDbEntity
  8
DETAIL
  6
CONTINUOUS
100
AcDbLine
 10
-14.99371747701752
 20
-172.7716495831795
 30
0.0
 11
-14.98499341266233
 21
-143.5260623241881
 31
0.0
  0
LINE
  5
1946F
330
1E
100
AcDbEntity
  8
DETAIL
  6
CONTINUOUS
100
AcDbLine
 10
-13.97728252298202
 20
-172.7716495831795
 30
0.0
 11
-13.98600658733357
 21
-143.5260623422013
 31
0.0
  0
LINE
  5
19470
330
1E
100
AcDbEntity
  8
DETAIL
  6
CONTINUOUS
100
AcDbLine
 10
-6.498650987298956
 20
-171.9823431345309
 30
0.0
 11
-5.488594256320538
 21
-171.9823431345306
 31
0.0
  0
LINE
  5
19471
330
1E
100
AcDbEntity
  8
DETAIL
  6
CONTINUOUS
100
AcDbLine
 10
-4.978050950793601
 20
-168.88889996281
 30
0.0
 11
-4.499561391171481
 21
-168.88889996281
 31
0.0
  0
LINE
  5
19472
330
1E
100
AcDbEntity
  8
DETAIL
  6
CONTINUOUS
100
AcDbLine
 10
-4.978050950793601
 20
-168.88889996281
 30
0.0
 11
-4.499561391171481
 21
-168.88889996281
 31
0.0
  0
ARC
  5
19473
330
1E
100
AcDbEntity
  8
DETAIL
  6
CONTINUOUS
100
AcDbCircle
 10
-6.994413198000074
 20
-167.2010913542751
 30
0.0
 40
4.627389119255126
100
AcDbArc
 50
61.30739406424525
 51
84.25056471303333
  0
ARC
  5
19474
330
1E
100
AcDbEntity
  8
DETAIL
  6
CONTINUOUS
100
AcDbCircle
 10
-9.876436071120224
 20
-171.9006462581518
 30
0.0
 40
3.378772921061041
100
AcDbArc
 50
312.0677427595781
 51
358.6144844428809
  0
ARC
  5
19475
330
1E
100
AcDbEntity
  8
DETAIL
  6
CONTINUOUS
100
AcDbCircle
 10
-4.457814856782532
 20
-171.0794648862114
 30
0.0
 40
0.4627000855988304
100
AcDbArc
 50
266.508818804114
 51
356.4377761929571
  0
ARC
  5
19476
330
1E
100
AcDbEntity
  8
DETAIL
  6
CONTINUOUS
100
AcDbCircle
 10
-4.512924651719912
 20
-169.405643109343
 30
0.0
 40
0.5169159082676897
100
AcDbArc
 50
0.0085219646151027
 51
88.51862995785579
  0
LINE
  5
19477
330
1E
100
AcDbEntity
  8
DETAIL
  6
CONTINUOUS
100
AcDbLine
 10
-5.489607275206251
 20
-171.8869311448746
 30
0.0
 11
-5.488594256320538
 21
-171.9823431345306
 31
0.0
  0
LINE
  5
19478
330
1E
100
AcDbEntity
  8
DETAIL
  6
CONTINUOUS
100
AcDbLine
 10
-5.493276720132597
 20
-171.541321518647
 30
0.0
 11
-5.489607275206251
 21
-171.8869311448746
 31
0.0
  0
LINE
  5
19479
330
1E
100
AcDbEntity
  8
DETAIL
  6
CONTINUOUS
100
AcDbLine
 10
-4.485990936264895
 20
-171.5413062851333
 30
0.0
 11
-5.493276720132597
 21
-171.541321518647
 31
0.0
  0
LINE
  5
1947A
330
1E
100
AcDbEntity
  8
DETAIL
  6
CONTINUOUS
100
AcDbLine
 10
-12.99567489157289
 20
-162.3094865182578
 30
0.0
 11
-13.15167046475016
 21
-170.7164447703989
 31
0.0
  0
ARC
  5
1947B
330
1E
100
AcDbEntity
  8
DETAIL
  6
CONTINUOUS
100
AcDbCircle
 10
-11.27915165428293
 20
-170.6488013649058
 30
0.0
 40
1.873740197001145
100
AcDbArc
 50
182.0688695259963
 51
203.6350989826336
  0
LINE
  5
1947C
330
1E
100
AcDbEntity
  8
DETAIL
  6
CONTINUOUS
100
AcDbLine
 10
-3.996008749169958
 20
-169.4055662251625
 30
0.0
 11
-3.996008749169958
 21
-171.108213593727
 31
0.0
  0
LINE
  5
1947D
330
1E
100
AcDbEntity
  8
DETAIL
  6
CONTINUOUS
100
AcDbLine
 10
-11.72145523612653
 20
-162.5969802897641
 30
0.0
 11
-6.530849430387205
 21
-162.5969802897641
 31
0.0
  0
LINE
  5
1947E
330
1E
100
AcDbEntity
  8
DETAIL
  6
CONTINUOUS
100
AcDbLine
 10
-4.978050950793658
 20
-168.88889996281
 30
0.0
 11
-4.772756033341464
 21
-163.1419079999703
 31
0.0
  0
LINE
  5
1947F
330
1E
100
AcDbEntity
  8
DETAIL
  6
CONTINUOUS
100
AcDbLine
 10
-3.996008749169958
 20
-169.4055662251625
 30
0.0
 11
-3.996008749169958
 21
-171.108213593727
 31
0.0
  0
LINE
  5
19480
330
1E
100
AcDbEntity
  8
DETAIL
  6
CONTINUOUS
100
AcDbLine
 10
-11.31769163901572
 20
-162.5969802897641
 30
0.0
 11
-6.530849430387205
 21
-162.5969802897641
 31
0.0
  0
LINE
  5
19481
330
1E
100
AcDbEntity
  8
DETAIL
  6
CONTINUOUS
100
AcDbLine
 10
-4.978050950793658
 20
-168.88889996281
 30
0.0
 11
-4.772756033341464
 21
-163.1419079999703
 31
0.0
  0
LINE
  5
19482
330
1E
100
AcDbEntity
  8
DETAIL
  6
CONTINUOUS
100
AcDbLine
 10
-12.99581777626463
 20
-172.0264384343803
 30
0.0
 11
-12.99571747701065
 21
-171.4000031368063
 31
0.0
  0
LINE
  5
19483
330
1E
100
AcDbEntity
  8
DETAIL
  6
CONTINUOUS
100
AcDbLine
 10
-23.48240574368265
 20
-171.9823431345306
 30
0.0
 11
-22.44402126459914
 21
-171.9823431345306
 31
0.0
  0
LINE
  5
19484
330
1E
100
AcDbEntity
  8
DETAIL
  6
CONTINUOUS
100
AcDbLine
 10
-23.48240574368265
 20
-171.9823431345306
 30
0.0
 11
-22.44402126459914
 21
-171.9823431345306
 31
0.0
  0
LINE
  5
19485
330
1E
100
AcDbEntity
  8
DETAIL
  6
CONTINUOUS
100
AcDbLine
 10
-23.99294904919674
 20
-168.88889996281
 30
0.0
 11
-24.4714386088317
 21
-168.88889996281
 31
0.0
  0
LINE
  5
19486
330
1E
100
AcDbEntity
  8
DETAIL
  6
CONTINUOUS
100
AcDbLine
 10
-23.99294904919674
 20
-168.88889996281
 30
0.0
 11
-24.4714386088317
 21
-168.88889996281
 31
0.0
  0
LINE
  5
19487
330
1E
100
AcDbEntity
  8
DETAIL
  6
CONTINUOUS
100
AcDbLine
 10
-23.48240574368265
 20
-171.9823431345306
 30
0.0
 11
-23.48240574368265
 21
-171.5413073017137
 31
0.0
  0
ARC
  5
19488
330
1E
100
AcDbEntity
  8
DETAIL
  6
CONTINUOUS
100
AcDbCircle
 10
-22.29447985416573
 20
-166.175477011878
 30
0.0
 40
3.581460420831991
100
AcDbArc
 50
92.33106579370632
 51
122.1109753310676
  0
ARC
  5
19489
330
1E
100
AcDbEntity
  8
DETAIL
  6
CONTINUOUS
100
AcDbCircle
 10
-19.37887190449964
 20
-172.0530150855096
 30
0.0
 40
3.065963979627565
100
AcDbArc
 50
178.6791876201162
 51
228.9292821428444
  0
ARC
  5
1948A
330
1E
100
AcDbEntity
  8
DETAIL
  6
CONTINUOUS
100
AcDbCircle
 10
-24.5131851889937
 20
-171.0794649380044
 30
0.0
 40
0.4627000366823176
100
AcDbArc
 50
183.5622177582161
 51
273.4911872440024
  0
LINE
  5
1948B
330
1E
100
AcDbEntity
  8
DETAIL
  6
CONTINUOUS
100
AcDbLine
 10
-24.97499125082049
 20
-169.4055662251606
 30
0.0
 11
-24.97499125082049
 21
-171.108213593727
 31
0.0
  0
LINE
  5
1948C
330
1E
100
AcDbEntity
  8
DETAIL
  6
CONTINUOUS
100
AcDbLine
 10
-24.96537207578239
 20
-169.3140361259946
 30
0.0
 11
-24.97499125082049
 21
-169.4055662251606
 31
0.0
  0
ARC
  5
1948D
330
1E
100
AcDbEntity
  8
DETAIL
  6
CONTINUOUS
100
AcDbCircle
 10
-24.4714386088317
 20
-169.3883999628085
 30
0.0
 40
0.4994999999987614
100
AcDbArc
 50
90.0
 51
171.4381733824064
  0
LINE
  5
1948E
330
1E
100
AcDbEntity
  8
DETAIL
  6
CONTINUOUS
100
AcDbLine
 10
-24.48500906373646
 20
-171.5413062851279
 30
0.0
 11
-23.47772312853611
 21
-171.5413073064618
 31
0.0
  0
ARC
  5
1948F
330
1E
100
AcDbEntity
  8
DETAIL
  6
CONTINUOUS
100
AcDbCircle
 10
-15.58211152061721
 20
-165.0067951763351
 30
0.0
 40
2.945054685461506
100
AcDbArc
 50
88.10062859974328
 51
264.3727778097368
  0
LINE
  5
19490
330
1E
100
AcDbEntity
  8
DETAIL
  6
CONTINUOUS
100
AcDbLine
 10
-15.97532371901706
 20
-162.309484383841
 30
0.0
 11
-15.81932967032025
 21
-170.7164450624908
 31
0.0
  0
ARC
  5
19491
330
1E
100
AcDbEntity
  8
DETAIL
  6
CONTINUOUS
100
AcDbCircle
 10
-15.92748960443804
 20
-171.5709058305918
 30
0.0
 40
0.4580258955822921
100
AcDbArc
 50
264.0231618623662
 51
345.2782887542624
  0
ARC
  5
19492
330
1E
100
AcDbEntity
  8
DETAIL
  6
CONTINUOUS
100
AcDbCircle
 10
-15.0562098878463
 20
-171.581370390339
 30
0.0
 40
0.4411958765896994
100
AcDbArc
 50
193.8924280315769
 51
278.1724350940846
  0
ARC
  5
19493
330
1E
100
AcDbEntity
  8
DETAIL
  6
CONTINUOUS
100
AcDbCircle
 10
-13.91473601427333
 20
-171.5814090499559
 30
0.0
 40
0.4411333751892939
100
AcDbArc
 50
261.8487961061412
 51
346.1111293280362
  0
ARC
  5
19494
330
1E
100
AcDbEntity
  8
DETAIL
  6
CONTINUOUS
100
AcDbCircle
 10
-17.69184484557172
 20
-170.6488025045821
 30
0.0
 40
1.873736533556753
100
AcDbArc
 50
336.3648900348446
 51
357.9311523667779
  0
ARC
  5
19495
330
1E
100
AcDbEntity
  8
DETAIL
  6
CONTINUOUS
100
AcDbCircle
 10
-15.0829155542533
 20
-171.8702109630179
 30
0.0
 40
0.9058409810246523
100
AcDbArc
 50
189.9314979901563
 51
275.6510677296061
  0
LINE
  5
19496
330
1E
100
AcDbEntity
  8
DETAIL
  6
CONTINUOUS
100
AcDbLine
 10
-14.9937174770066
 20
-172.7716495831798
 30
0.0
 11
-13.97728252298202
 21
-172.7716495831798
 31
0.0
  0
LINE
  5
19497
330
1E
100
AcDbEntity
  8
DETAIL
  6
CONTINUOUS
100
AcDbLine
 10
-22.44015056457555
 20
-162.5969802897641
 30
0.0
 11
-17.27338512048027
 21
-162.5957910886639
 31
0.0
  0
LINE
  5
19498
330
1E
100
AcDbEntity
  8
DETAIL
  6
CONTINUOUS
100
AcDbLine
 10
-23.99294904919679
 20
-168.88889996281
 30
0.0
 11
-24.19824396664898
 21
-163.1419079999689
 31
0.0
  0
LINE
  5
19499
330
1E
100
AcDbEntity
  8
DETAIL
  6
CONTINUOUS
100
AcDbLine
 10
-22.44015056457555
 20
-162.5969802897641
 30
0.0
 11
-17.65334547307155
 21
-162.5958785416891
 31
0.0
  0
LINE
  5
1949A
330
1E
100
AcDbEntity
  8
DETAIL
  6
CONTINUOUS
100
AcDbLine
 10
-23.99294904919679
 20
-168.88889996281
 30
0.0
 11
-24.19824396664898
 21
-163.1419079999689
 31
0.0
  0
LINE
  5
1949B
330
1E
100
AcDbEntity
  8
DETAIL
  6
CONTINUOUS
100
AcDbLine
 10
-15.97518220052825
 20
-172.0264419293838
 30
0.0
 11
-15.97528252298161
 21
-171.4000031368031
 31
0.0
  0
LINE
  5
1949C
330
1E
100
AcDbEntity
  8
DETAIL
  6
CONTINUOUS
100
AcDbLine
 10
-13.97750731350333
 20
-172.0180867301636
 30
0.0
 11
-14.99371747701752
 21
-172.0180858056394
 31
0.0
  0
ARC
  5
1949D
330
1E
100
AcDbEntity
  8
DETAIL
  6
CONTINUOUS
100
AcDbCircle
 10
-13.36890877711902
 20
-165.0140250982289
 30
0.0
 40
2.92509978904237
100
AcDbArc
 50
275.2765866849069
 51
92.30395450675452
  0
ARC
  5
1949E
330
1E
100
AcDbEntity
  8
DETAIL
  6
CONTINUOUS
100
AcDbCircle
 10
-13.04351075686736
 20
-171.5709026694065
 30
0.0
 40
0.4580256036283231
100
AcDbArc
 50
194.7217501057241
 51
275.9768903239495
  0
ARC
  5
1949F
330
1E
100
AcDbEntity
  8
DETAIL
  6
CONTINUOUS
100
AcDbCircle
 10
-13.88808385363972
 20
-171.8702124477553
 30
0.0
 40
0.9058395618070807
100
AcDbArc
 50
264.3488857532338
 51
350.0688060595861
  0
LINE
  5
194A0
330
1E
100
AcDbEntity
  8
DETAIL
  6
CONTINUOUS
100
AcDbLine
 10
-21.39317969127387
 20
-174.3644430563785
 30
0.0
 11
-7.61262853485914
 21
-174.408889047609
 31
0.0
  0
ARC
  5
194A1
330
1E
100
AcDbEntity
  8
DETAIL
  6
CONTINUOUS
100
AcDbCircle
 10
-24.28776776264112
 20
-145.2503134350366
 30
0.0
 40
9.303138114700622
100
AcDbArc
 50
341.1324446327767
 51
359.4887518888008
  0
ARC
  5
194A2
330
1E
100
AcDbEntity
  8
DETAIL
  6
CONTINUOUS
100
AcDbCircle
 10
-4.649759307821113
 20
-145.241808546555
 30
0.0
 40
9.33756323541516
100
AcDbArc
 50
181.1508954655483
 51
198.8505178721118
  0
LINE
  5
194A4
330
1E
100
AcDbEntity
  8
DETAIL
  6
CONTINUOUS
100
AcDbLine
 10
-57.3571796912829
 20
-174.3644430563785
 30
0.0
 11
-43.57662853486817
 21
-174.408889047609
 31
0.0
  0
LINE
  5
194A5
330
1E
100
AcDbEntity
  8
DETAIL
  6
CONTINUOUS
100
AcDbLine
 10
-49.94150731351236
 20
-172.0180867301636
 30
0.0
 11
-50.95771747702656
 21
-172.0180858056394
 31
0.0
  0
LINE
  5
194A6
330
1E
100
AcDbEntity
  8
DETAIL
  6
CONTINUOUS
100
AcDbLine
 10
-50.95771747701565
 20
-172.7716495831798
 30
0.0
 11
-49.94128252299105
 21
-172.7716495831798
 31
0.0
  0
LINE
  5
194A7
330
1E
100
AcDbEntity
  8
DETAIL
  6
CONTINUOUS
100
AcDbLine
 10
-51.93918220053729
 20
-172.0264419293838
 30
0.0
 11
-51.93928252299064
 21
-171.4000031368031
 31
0.0
  0
LINE
  5
194A8
330
1E
100
AcDbEntity
  8
DETAIL
  6
CONTINUOUS
100
AcDbLine
 10
-59.95694904920583
 20
-168.88889996281
 30
0.0
 11
-60.16224396665801
 21
-163.1419079999689
 31
0.0
  0
LINE
  5
194A9
330
1E
100
AcDbEntity
  8
DETAIL
  6
CONTINUOUS
100
AcDbLine
 10
-58.4041505645846
 20
-162.5969802897641
 30
0.0
 11
-53.6173454730806
 21
-162.5958785416891
 31
0.0
  0
LINE
  5
194AA
330
1E
100
AcDbEntity
  8
DETAIL
  6
CONTINUOUS
100
AcDbLine
 10
-59.95694904920583
 20
-168.88889996281
 30
0.0
 11
-60.16224396665801
 21
-163.1419079999689
 31
0.0
  0
LINE
  5
194AB
330
1E
100
AcDbEntity
  8
DETAIL
  6
CONTINUOUS
100
AcDbLine
 10
-58.4041505645846
 20
-162.5969802897641
 30
0.0
 11
-53.2373851204893
 21
-162.5957910886639
 31
0.0
  0
ARC
  5
194AC
330
1E
100
AcDbEntity
  8
DETAIL
  6
CONTINUOUS
100
AcDbCircle
 10
-51.04691555426234
 20
-171.8702109630179
 30
0.0
 40
0.9058409810246523
100
AcDbArc
 50
189.9314979901563
 51
275.6510677296061
  0
ARC
  5
194AD
330
1E
100
AcDbEntity
  8
DETAIL
  6
CONTINUOUS
100
AcDbCircle
 10
-53.65584484558076
 20
-170.6488025045821
 30
0.0
 40
1.873736533556753
100
AcDbArc
 50
336.3648900348446
 51
357.9311523667779
  0
ARC
  5
194AE
330
1E
100
AcDbEntity
  8
DETAIL
  6
CONTINUOUS
100
AcDbCircle
 10
-51.02020988785533
 20
-171.581370390339
 30
0.0
 40
0.4411958765896994
100
AcDbArc
 50
193.8924280315769
 51
278.1724350940846
  0
ARC
  5
194AF
330
1E
100
AcDbEntity
  8
DETAIL
  6
CONTINUOUS
100
AcDbCircle
 10
-51.89148960444708
 20
-171.5709058305918
 30
0.0
 40
0.4580258955822921
100
AcDbArc
 50
264.0231618623662
 51
345.2782887542624
  0
LINE
  5
194B0
330
1E
100
AcDbEntity
  8
DETAIL
  6
CONTINUOUS
100
AcDbLine
 10
-51.93932371902611
 20
-162.309484383841
 30
0.0
 11
-51.78332967032929
 21
-170.7164450624908
 31
0.0
  0
ARC
  5
194B1
330
1E
100
AcDbEntity
  8
DETAIL
  6
CONTINUOUS
100
AcDbCircle
 10
-51.54611152062624
 20
-165.0067951763351
 30
0.0
 40
2.945054685461506
100
AcDbArc
 50
88.10062859974328
 51
264.3727778097368
  0
LINE
  5
194B2
330
1E
100
AcDbEntity
  8
DETAIL
  6
CONTINUOUS
100
AcDbLine
 10
-60.4490090637455
 20
-171.5413062851279
 30
0.0
 11
-59.44172312854516
 21
-171.5413073064618
 31
0.0
  0
ARC
  5
194B3
330
1E
100
AcDbEntity
  8
DETAIL
  6
CONTINUOUS
100
AcDbCircle
 10
-60.43543860884074
 20
-169.3883999628085
 30
0.0
 40
0.4994999999987614
100
AcDbArc
 50
90.0
 51
171.4381733824064
  0
LINE
  5
194B4
330
1E
100
AcDbEntity
  8
DETAIL
  6
CONTINUOUS
100
AcDbLine
 10
-60.92937207579144
 20
-169.3140361259946
 30
0.0
 11
-60.93899125082953
 21
-169.4055662251606
 31
0.0
  0
LINE
  5
194B5
330
1E
100
AcDbEntity
  8
DETAIL
  6
CONTINUOUS
100
AcDbLine
 10
-60.93899125082953
 20
-169.4055662251606
 30
0.0
 11
-60.93899125082953
 21
-171.108213593727
 31
0.0
  0
ARC
  5
194B6
330
1E
100
AcDbEntity
  8
DETAIL
  6
CONTINUOUS
100
AcDbCircle
 10
-60.47718518900275
 20
-171.0794649380044
 30
0.0
 40
0.4627000366823176
100
AcDbArc
 50
183.5622177582161
 51
273.4911872440024
  0
ARC
  5
194B7
330
1E
100
AcDbEntity
  8
DETAIL
  6
CONTINUOUS
100
AcDbCircle
 10
-55.34287190450868
 20
-172.0530150855096
 30
0.0
 40
3.065963979627565
100
AcDbArc
 50
178.6791876201162
 51
228.9292821428444
  0
ARC
  5
194B8
330
1E
100
AcDbEntity
  8
DETAIL
  6
CONTINUOUS
100
AcDbCircle
 10
-58.25847985417476
 20
-166.175477011878
 30
0.0
 40
3.581460420831991
100
AcDbArc
 50
92.33106579370632
 51
122.1109753310676
  0
LINE
  5
194B9
330
1E
100
AcDbEntity
  8
DETAIL
  6
CONTINUOUS
100
AcDbLine
 10
-59.44640574369168
 20
-171.9823431345306
 30
0.0
 11
-59.44640574369168
 21
-171.5413073017137
 31
0.0
  0
LINE
  5
194BA
330
1E
100
AcDbEntity
  8
DETAIL
  6
CONTINUOUS
100
AcDbLine
 10
-59.95694904920576
 20
-168.88889996281
 30
0.0
 11
-60.43543860884074
 21
-168.88889996281
 31
0.0
  0
LINE
  5
194BB
330
1E
100
AcDbEntity
  8
DETAIL
  6
CONTINUOUS
100
AcDbLine
 10
-59.95694904920576
 20
-168.88889996281
 30
0.0
 11
-60.43543860884074
 21
-168.88889996281
 31
0.0
  0
LINE
  5
194BC
330
1E
100
AcDbEntity
  8
DETAIL
  6
CONTINUOUS
100
AcDbLine
 10
-59.44640574369168
 20
-171.9823431345306
 30
0.0
 11
-58.40802126460818
 21
-171.9823431345306
 31
0.0
  0
LINE
  5
194BD
330
1E
100
AcDbEntity
  8
DETAIL
  6
CONTINUOUS
100
AcDbLine
 10
-59.44640574369168
 20
-171.9823431345306
 30
0.0
 11
-58.40802126460818
 21
-171.9823431345306
 31
0.0
  0
LINE
  5
194BE
330
1E
100
AcDbEntity
  8
DETAIL
  6
CONTINUOUS
100
AcDbLine
 10
-50.95771747702656
 20
-172.7716495831795
 30
0.0
 11
-50.94899341267137
 21
-143.5260623241881
 31
0.0
  0
LINE
  5
194BF
330
1E
100
AcDbEntity
  8
DETAIL
  6
CONTINUOUS
100
AcDbLine
 10
-51.44850000000133
 20
-148.2587774086127
 30
0.0
 11
-51.44850000000031
 21
-162.0633585639041
 31
0.0
  0
ARC
  5
194C0
330
1E
100
AcDbEntity
  8
DETAIL
  6
CONTINUOUS
100
AcDbCircle
 10
-49.85208385364876
 20
-171.8702124477553
 30
0.0
 40
0.9058395618070807
100
AcDbArc
 50
264.3488857532338
 51
350.0688060595861
  0
ARC
  5
194C1
330
1E
100
AcDbEntity
  8
DETAIL
  6
CONTINUOUS
100
AcDbCircle
 10
-49.0075107568764
 20
-171.5709026694065
 30
0.0
 40
0.4580256036283231
100
AcDbArc
 50
194.7217501057241
 51
275.9768903239495
  0
ARC
  5
194C2
330
1E
100
AcDbEntity
  8
DETAIL
  6
CONTINUOUS
100
AcDbCircle
 10
-49.33290877712806
 20
-165.0140250982289
 30
0.0
 40
2.92509978904237
100
AcDbArc
 50
275.2765866849069
 51
92.30395450675452
  0
ARC
  5
194C3
330
1E
100
AcDbEntity
  8
DETAIL
  6
CONTINUOUS
100
AcDbCircle
 10
-49.87873601428237
 20
-171.5814090499559
 30
0.0
 40
0.4411333751892939
100
AcDbArc
 50
261.8487961061412
 51
346.1111293280362
  0
LINE
  5
194C4
330
1E
100
AcDbEntity
  8
DETAIL
  6
CONTINUOUS
100
AcDbLine
 10
-48.95981777627365
 20
-172.0264384343803
 30
0.0
 11
-48.95971747701969
 21
-171.4000031368063
 31
0.0
  0
LINE
  5
194C5
330
1E
100
AcDbEntity
  8
DETAIL
  6
CONTINUOUS
100
AcDbLine
 10
-40.94205095080268
 20
-168.88889996281
 30
0.0
 11
-40.7367560333505
 21
-163.1419079999703
 31
0.0
  0
LINE
  5
194C6
330
1E
100
AcDbEntity
  8
DETAIL
  6
CONTINUOUS
100
AcDbLine
 10
-47.28169163902475
 20
-162.5969802897641
 30
0.0
 11
-42.49484943039624
 21
-162.5969802897641
 31
0.0
  0
LINE
  5
194C7
330
1E
100
AcDbEntity
  8
DETAIL
  6
CONTINUOUS
100
AcDbLine
 10
-39.96000874917898
 20
-169.4055662251625
 30
0.0
 11
-39.96000874917898
 21
-171.108213593727
 31
0.0
  0
LINE
  5
194C8
330
1E
100
AcDbEntity
  8
DETAIL
  6
CONTINUOUS
100
AcDbLine
 10
-40.94205095080268
 20
-168.88889996281
 30
0.0
 11
-40.7367560333505
 21
-163.1419079999703
 31
0.0
  0
LINE
  5
194C9
330
1E
100
AcDbEntity
  8
DETAIL
  6
CONTINUOUS
100
AcDbLine
 10
-47.68545523613556
 20
-162.5969802897641
 30
0.0
 11
-42.49484943039624
 21
-162.5969802897641
 31
0.0
  0
LINE
  5
194CA
330
1E
100
AcDbEntity
  8
DETAIL
  6
CONTINUOUS
100
AcDbLine
 10
-39.96000874917898
 20
-169.4055662251625
 30
0.0
 11
-39.96000874917898
 21
-171.108213593727
 31
0.0
  0
ARC
  5
194CB
330
1E
100
AcDbEntity
  8
DETAIL
  6
CONTINUOUS
100
AcDbCircle
 10
-47.24315165429197
 20
-170.6488013649058
 30
0.0
 40
1.873740197001145
100
AcDbArc
 50
182.0688695259963
 51
203.6350989826336
  0
LINE
  5
194CC
330
1E
100
AcDbEntity
  8
DETAIL
  6
CONTINUOUS
100
AcDbLine
 10
-48.95967489158192
 20
-162.3094865182578
 30
0.0
 11
-49.1156704647592
 21
-170.7164447703989
 31
0.0
  0
LINE
  5
194CD
330
1E
100
AcDbEntity
  8
DETAIL
  6
CONTINUOUS
100
AcDbLine
 10
-40.44999093627392
 20
-171.5413062851333
 30
0.0
 11
-41.45727672014163
 21
-171.541321518647
 31
0.0
  0
LINE
  5
194CE
330
1E
100
AcDbEntity
  8
DETAIL
  6
CONTINUOUS
100
AcDbLine
 10
-41.45727672014163
 20
-171.541321518647
 30
0.0
 11
-41.45360727521529
 21
-171.8869311448746
 31
0.0
  0
LINE
  5
194CF
330
1E
100
AcDbEntity
  8
DETAIL
  6
CONTINUOUS
100
AcDbLine
 10
-41.45360727521529
 20
-171.8869311448746
 30
0.0
 11
-41.45259425632956
 21
-171.9823431345306
 31
0.0
  0
ARC
  5
194D0
330
1E
100
AcDbEntity
  8
DETAIL
  6
CONTINUOUS
100
AcDbCircle
 10
-40.47692465172896
 20
-169.405643109343
 30
0.0
 40
0.5169159082676897
100
AcDbArc
 50
0.0085219646151027
 51
88.51862995785579
  0
ARC
  5
194D1
330
1E
100
AcDbEntity
  8
DETAIL
  6
CONTINUOUS
100
AcDbCircle
 10
-40.42181485679157
 20
-171.0794648862114
 30
0.0
 40
0.4627000855988304
100
AcDbArc
 50
266.508818804114
 51
356.4377761929571
  0
ARC
  5
194D2
330
1E
100
AcDbEntity
  8
DETAIL
  6
CONTINUOUS
100
AcDbCircle
 10
-45.84043607112925
 20
-171.9006462581518
 30
0.0
 40
3.378772921061041
100
AcDbArc
 50
312.0677427595781
 51
358.6144844428809
  0
ARC
  5
194D3
330
1E
100
AcDbEntity
  8
DETAIL
  6
CONTINUOUS
100
AcDbCircle
 10
-42.95841319800911
 20
-167.2010913542751
 30
0.0
 40
4.627389119255126
100
AcDbArc
 50
61.30739406424525
 51
84.25056471303333
  0
LINE
  5
194D4
330
1E
100
AcDbEntity
  8
DETAIL
  6
CONTINUOUS
100
AcDbLine
 10
-40.94205095080264
 20
-168.88889996281
 30
0.0
 11
-40.46356139118052
 21
-168.88889996281
 31
0.0
  0
LINE
  5
194D5
330
1E
100
AcDbEntity
  8
DETAIL
  6
CONTINUOUS
100
AcDbLine
 10
-40.94205095080264
 20
-168.88889996281
 30
0.0
 11
-40.46356139118052
 21
-168.88889996281
 31
0.0
  0
LINE
  5
194D6
330
1E
100
AcDbEntity
  8
DETAIL
  6
CONTINUOUS
100
AcDbLine
 10
-42.46265098730799
 20
-171.9823431345309
 30
0.0
 11
-41.45259425632956
 21
-171.9823431345306
 31
0.0
  0
LINE
  5
194D7
330
1E
100
AcDbEntity
  8
DETAIL
  6
CONTINUOUS
100
AcDbLine
 10
-49.94128252299105
 20
-172.7716495831795
 30
0.0
 11
-49.95000658734261
 21
-143.5260623422013
 31
0.0
  0
LINE
  5
194D8
330
1E
100
AcDbEntity
  8
DETAIL
  6
CONTINUOUS
100
AcDbLine
 10
-49.45050000000719
 20
-148.2587774086127
 30
0.0
 11
-49.45050000000715
 21
-162.0912898929533
 31
0.0
  0
ARC
  5
194D9
330
1E
100
AcDbEntity
  8
DETAIL
  6
CONTINUOUS
100
AcDbCircle
 10
-60.25176776265015
 20
-145.2503134350366
 30
0.0
 40
9.303138114700622
100
AcDbArc
 50
341.1324446327767
 51
359.4887518888008
  0
ARC
  5
194DA
330
1E
100
AcDbEntity
  8
DETAIL
  6
CONTINUOUS
100
AcDbCircle
 10
-40.61375930783015
 20
-145.241808546555
 30
0.0
 40
9.33756323541516
100
AcDbArc
 50
181.1508954655483
 51
198.8505178721118
  0
LINE
  5
194DB
330
1E
100
AcDbEntity
  8
DETAIL
  6
CONTINUOUS
100
AcDbLine
 10
-115.3844999984676
 20
-148.2587787350928
 30
0.0
 11
-115.3844999984675
 21
-162.0912912194334
 31
0.0
  0
LINE
  5
194DC
330
1E
100
AcDbEntity
  8
DETAIL
  6
CONTINUOUS
100
AcDbLine
 10
-115.8752825214514
 20
-172.7716509096597
 30
0.0
 11
-115.884006585803
 21
-143.5260636686814
 31
0.0
  0
LINE
  5
194DD
330
1E
100
AcDbEntity
  8
DETAIL
  6
CONTINUOUS
100
AcDbLine
 10
-108.3966509857684
 20
-171.982344461011
 30
0.0
 11
-107.38659425479
 21
-171.9823444610108
 31
0.0
  0
LINE
  5
194DE
330
1E
100
AcDbEntity
  8
DETAIL
  6
CONTINUOUS
100
AcDbLine
 10
-106.876050949263
 20
-168.8889012892904
 30
0.0
 11
-106.3975613896408
 21
-168.8889012892904
 31
0.0
  0
LINE
  5
194DF
330
1E
100
AcDbEntity
  8
DETAIL
  6
CONTINUOUS
100
AcDbLine
 10
-106.876050949263
 20
-168.8889012892904
 30
0.0
 11
-106.3975613896408
 21
-168.8889012892904
 31
0.0
  0
ARC
  5
194E0
330
1E
100
AcDbEntity
  8
DETAIL
  6
CONTINUOUS
100
AcDbCircle
 10
-108.8924131964694
 20
-167.2010926807554
 30
0.0
 40
4.627389119255126
100
AcDbArc
 50
61.30739406424525
 51
84.25056471303333
  0
ARC
  5
194E1
330
1E
100
AcDbEntity
  8
DETAIL
  6
CONTINUOUS
100
AcDbCircle
 10
-111.7744360695896
 20
-171.9006475846321
 30
0.0
 40
3.378772921061041
100
AcDbArc
 50
312.0677427595781
 51
358.6144844428809
  0
ARC
  5
194E2
330
1E
100
AcDbEntity
  8
DETAIL
  6
CONTINUOUS
100
AcDbCircle
 10
-106.3558148552519
 20
-171.0794662126916
 30
0.0
 40
0.4627000855988304
100
AcDbArc
 50
266.508818804114
 51
356.4377761929571
  0
ARC
  5
194E3
330
1E
100
AcDbEntity
  8
DETAIL
  6
CONTINUOUS
100
AcDbCircle
 10
-106.4109246501893
 20
-169.4056444358233
 30
0.0
 40
0.5169159082676897
100
AcDbArc
 50
0.0085219646151027
 51
88.51862995785579
  0
LINE
  5
194E4
330
1E
100
AcDbEntity
  8
DETAIL
  6
CONTINUOUS
100
AcDbLine
 10
-107.3876072736757
 20
-171.8869324713548
 30
0.0
 11
-107.38659425479
 21
-171.9823444610108
 31
0.0
  0
LINE
  5
194E5
330
1E
100
AcDbEntity
  8
DETAIL
  6
CONTINUOUS
100
AcDbLine
 10
-107.391276718602
 20
-171.5413228451274
 30
0.0
 11
-107.3876072736757
 21
-171.8869324713548
 31
0.0
  0
LINE
  5
194E6
330
1E
100
AcDbEntity
  8
DETAIL
  6
CONTINUOUS
100
AcDbLine
 10
-106.3839909347342
 20
-171.5413076116137
 30
0.0
 11
-107.391276718602
 21
-171.5413228451274
 31
0.0
  0
LINE
  5
194E7
330
1E
100
AcDbEntity
  8
DETAIL
  6
CONTINUOUS
100
AcDbLine
 10
-114.8936748900423
 20
-162.3094878447381
 30
0.0
 11
-115.0496704632195
 21
-170.716446096879
 31
0.0
  0
ARC
  5
194E8
330
1E
100
AcDbEntity
  8
DETAIL
  6
CONTINUOUS
100
AcDbCircle
 10
-113.1771516527523
 20
-170.648802691386
 30
0.0
 40
1.873740197001145
100
AcDbArc
 50
182.0688695259963
 51
203.6350989826336
  0
LINE
  5
194E9
330
1E
100
AcDbEntity
  8
DETAIL
  6
CONTINUOUS
100
AcDbLine
 10
-105.8940087476394
 20
-169.4055675516428
 30
0.0
 11
-105.8940087476394
 21
-171.1082149202074
 31
0.0
  0
LINE
  5
194EA
330
1E
100
AcDbEntity
  8
DETAIL
  6
CONTINUOUS
100
AcDbLine
 10
-113.619455234596
 20
-162.5969816162445
 30
0.0
 11
-108.4288494288566
 21
-162.5969816162445
 31
0.0
  0
LINE
  5
194EB
330
1E
100
AcDbEntity
  8
DETAIL
  6
CONTINUOUS
100
AcDbLine
 10
-106.876050949263
 20
-168.8889012892904
 30
0.0
 11
-106.6707560318109
 21
-163.1419093264505
 31
0.0
  0
LINE
  5
194EC
330
1E
100
AcDbEntity
  8
DETAIL
  6
CONTINUOUS
100
AcDbLine
 10
-105.8940087476394
 20
-169.4055675516428
 30
0.0
 11
-105.8940087476394
 21
-171.1082149202074
 31
0.0
  0
LINE
  5
194ED
330
1E
100
AcDbEntity
  8
DETAIL
  6
CONTINUOUS
100
AcDbLine
 10
-113.215691637485
 20
-162.5969816162445
 30
0.0
 11
-108.4288494288566
 21
-162.5969816162445
 31
0.0
  0
LINE
  5
194EE
330
1E
100
AcDbEntity
  8
DETAIL
  6
CONTINUOUS
100
AcDbLine
 10
-106.876050949263
 20
-168.8889012892904
 30
0.0
 11
-106.6707560318109
 21
-163.1419093264505
 31
0.0
  0
LINE
  5
194EF
330
1E
100
AcDbEntity
  8
DETAIL
  6
CONTINUOUS
100
AcDbLine
 10
-114.8938177747339
 20
-172.0264397608606
 30
0.0
 11
-114.89371747548
 21
-171.4000044632865
 31
0.0
  0
ARC
  5
194F0
330
1E
100
AcDbEntity
  8
DETAIL
  6
CONTINUOUS
100
AcDbCircle
 10
-115.8127360127428
 20
-171.5814103764363
 30
0.0
 40
0.4411333751892939
100
AcDbArc
 50
261.8487961061412
 51
346.1111293280362
  0
ARC
  5
194F1
330
1E
100
AcDbEntity
  8
DETAIL
  6
CONTINUOUS
100
AcDbCircle
 10
-115.2669087755884
 20
-165.0140264247091
 30
0.0
 40
2.92509978904237
100
AcDbArc
 50
275.2765866849069
 51
92.30395450675452
  0
ARC
  5
194F2
330
1E
100
AcDbEntity
  8
DETAIL
  6
CONTINUOUS
100
AcDbCircle
 10
-114.9415107553368
 20
-171.5709039958868
 30
0.0
 40
0.4580256036283231
100
AcDbArc
 50
194.7217501057241
 51
275.9768903239495
  0
ARC
  5
194F3
330
1E
100
AcDbEntity
  8
DETAIL
  6
CONTINUOUS
100
AcDbCircle
 10
-115.786083852109
 20
-171.8702137742356
 30
0.0
 40
0.9058395618070807
100
AcDbArc
 50
264.3488857532338
 51
350.0688060595861
  0
LINE
  5
194F4
330
1E
100
AcDbEntity
  8
DETAIL
  6
CONTINUOUS
100
AcDbLine
 10
-117.3824999984617
 20
-148.2587787350928
 30
0.0
 11
-117.3824999984607
 21
-162.0633598903844
 31
0.0
  0
LINE
  5
194F5
330
1E
100
AcDbEntity
  8
DETAIL
  6
CONTINUOUS
100
AcDbLine
 10
-116.8917174754869
 20
-172.7716509096597
 30
0.0
 11
-116.8829934111317
 21
-143.5260636506686
 31
0.0
  0
LINE
  5
194F6
330
1E
100
AcDbEntity
  8
DETAIL
  6
CONTINUOUS
100
AcDbLine
 10
-125.3804057421521
 20
-171.9823444610108
 30
0.0
 11
-124.3420212630686
 21
-171.9823444610108
 31
0.0
  0
LINE
  5
194F7
330
1E
100
AcDbEntity
  8
DETAIL
  6
CONTINUOUS
100
AcDbLine
 10
-125.3804057421521
 20
-171.9823444610108
 30
0.0
 11
-124.3420212630686
 21
-171.9823444610108
 31
0.0
  0
LINE
  5
194F8
330
1E
100
AcDbEntity
  8
DETAIL
  6
CONTINUOUS
100
AcDbLine
 10
-125.8909490476662
 20
-168.8889012892904
 30
0.0
 11
-126.369438607301
 21
-168.8889012892904
 31
0.0
  0
LINE
  5
194F9
330
1E
100
AcDbEntity
  8
DETAIL
  6
CONTINUOUS
100
AcDbLine
 10
-125.8909490476662
 20
-168.8889012892904
 30
0.0
 11
-126.369438607301
 21
-168.8889012892904
 31
0.0
  0
LINE
  5
194FA
330
1E
100
AcDbEntity
  8
DETAIL
  6
CONTINUOUS
100
AcDbLine
 10
-125.3804057421521
 20
-171.9823444610108
 30
0.0
 11
-125.3804057421521
 21
-171.5413086281941
 31
0.0
  0
ARC
  5
194FB
330
1E
100
AcDbEntity
  8
DETAIL
  6
CONTINUOUS
100
AcDbCircle
 10
-124.1924798526351
 20
-166.1754783383583
 30
0.0
 40
3.581460420831991
100
AcDbArc
 50
92.33106579370632
 51
122.1109753310676
  0
ARC
  5
194FC
330
1E
100
AcDbEntity
  8
DETAIL
  6
CONTINUOUS
100
AcDbCircle
 10
-121.276871902969
 20
-172.0530164119898
 30
0.0
 40
3.065963979627565
100
AcDbArc
 50
178.6791876201162
 51
228.9292821428444
  0
ARC
  5
194FD
330
1E
100
AcDbEntity
  8
DETAIL
  6
CONTINUOUS
100
AcDbCircle
 10
-126.411185187463
 20
-171.0794662644846
 30
0.0
 40
0.4627000366823176
100
AcDbArc
 50
183.5622177582161
 51
273.4911872440024
  0
LINE
  5
194FE
330
1E
100
AcDbEntity
  8
DETAIL
  6
CONTINUOUS
100
AcDbLine
 10
-126.8729912492899
 20
-169.4055675516409
 30
0.0
 11
-126.8729912492899
 21
-171.1082149202074
 31
0.0
  0
LINE
  5
194FF
330
1E
100
AcDbEntity
  8
DETAIL
  6
CONTINUOUS
100
AcDbLine
 10
-126.8633720742518
 20
-169.3140374524749
 30
0.0
 11
-126.8729912492899
 21
-169.4055675516409
 31
0.0
  0
ARC
  5
19500
330
1E
100
AcDbEntity
  8
DETAIL
  6
CONTINUOUS
100
AcDbCircle
 10
-126.369438607301
 20
-169.3884012892889
 30
0.0
 40
0.4994999999987614
100
AcDbArc
 50
90.0
 51
171.4381733824064
  0
LINE
  5
19501
330
1E
100
AcDbEntity
  8
DETAIL
  6
CONTINUOUS
100
AcDbLine
 10
-126.3830090622058
 20
-171.5413076116081
 30
0.0
 11
-125.3757231270055
 21
-171.541308632942
 31
0.0
  0
ARC
  5
19502
330
1E
100
AcDbEntity
  8
DETAIL
  6
CONTINUOUS
100
AcDbCircle
 10
-117.4801115190865
 20
-165.0067965028154
 30
0.0
 40
2.945054685461506
100
AcDbArc
 50
88.10062859974328
 51
264.3727778097368
  0
LINE
  5
19503
330
1E
100
AcDbEntity
  8
DETAIL
  6
CONTINUOUS
100
AcDbLine
 10
-117.8733237174865
 20
-162.3094857103214
 30
0.0
 11
-117.7173296687897
 21
-170.7164463889711
 31
0.0
  0
ARC
  5
19504
330
1E
100
AcDbEntity
  8
DETAIL
  6
CONTINUOUS
100
AcDbCircle
 10
-117.8254896029075
 20
-171.5709071570721
 30
0.0
 40
0.4580258955822921
100
AcDbArc
 50
264.0231618623662
 51
345.2782887542624
  0
ARC
  5
19505
330
1E
100
AcDbEntity
  8
DETAIL
  6
CONTINUOUS
100
AcDbCircle
 10
-116.9542098863157
 20
-171.5813717168191
 30
0.0
 40
0.4411958765896994
100
AcDbArc
 50
193.8924280315769
 51
278.1724350940846
  0
ARC
  5
19506
330
1E
100
AcDbEntity
  8
DETAIL
  6
CONTINUOUS
100
AcDbCircle
 10
-119.589844844041
 20
-170.6488038310625
 30
0.0
 40
1.873736533556753
100
AcDbArc
 50
336.3648900348446
 51
357.9311523667779
  0
ARC
  5
19507
330
1E
100
AcDbEntity
  8
DETAIL
  6
CONTINUOUS
100
AcDbCircle
 10
-116.9809155527227
 20
-171.8702122894981
 30
0.0
 40
0.9058409810246523
100
AcDbArc
 50
189.9314979901563
 51
275.6510677296061
  0
LINE
  5
19508
330
1E
100
AcDbEntity
  8
DETAIL
  6
CONTINUOUS
100
AcDbLine
 10
-124.338150563045
 20
-162.5969816162445
 30
0.0
 11
-119.1713851189497
 21
-162.5957924151443
 31
0.0
  0
LINE
  5
19509
330
1E
100
AcDbEntity
  8
DETAIL
  6
CONTINUOUS
100
AcDbLine
 10
-125.8909490476662
 20
-168.8889012892904
 30
0.0
 11
-126.0962439651184
 21
-163.1419093264493
 31
0.0
  0
LINE
  5
1950A
330
1E
100
AcDbEntity
  8
DETAIL
  6
CONTINUOUS
100
AcDbLine
 10
-124.338150563045
 20
-162.5969816162445
 30
0.0
 11
-119.551345471541
 21
-162.5958798681693
 31
0.0
  0
LINE
  5
1950B
330
1E
100
AcDbEntity
  8
DETAIL
  6
CONTINUOUS
100
AcDbLine
 10
-125.8909490476662
 20
-168.8889012892904
 30
0.0
 11
-126.0962439651184
 21
-163.1419093264493
 31
0.0
  0
LINE
  5
1950C
330
1E
100
AcDbEntity
  8
DETAIL
  6
CONTINUOUS
100
AcDbLine
 10
-117.8731821989977
 20
-172.0264432558641
 30
0.0
 11
-117.8732825214509
 21
-171.4000044632834
 31
0.0
  0
LINE
  5
1950D
330
1E
100
AcDbEntity
  8
DETAIL
  6
CONTINUOUS
100
AcDbLine
 10
-116.8917174754759
 20
-172.7716509096602
 30
0.0
 11
-115.8752825214514
 21
-172.7716509096602
 31
0.0
  0
LINE
  5
1950E
330
1E
100
AcDbEntity
  8
DETAIL
  6
CONTINUOUS
100
AcDbLine
 10
-115.8755073119728
 20
-172.0180880566439
 30
0.0
 11
-116.8917174754869
 21
-172.0180871321198
 31
0.0
  0
LINE
  5
1950F
330
1E
100
AcDbEntity
  8
DETAIL
  6
CONTINUOUS
100
AcDbLine
 10
-123.2911796897432
 20
-174.3644443828588
 30
0.0
 11
-109.5106285333285
 21
-174.4088903740893
 31
0.0
  0
ARC
  5
19510
330
1E
100
AcDbEntity
  8
DETAIL
  6
CONTINUOUS
100
AcDbCircle
 10
-106.5477593062904
 20
-145.2418098730353
 30
0.0
 40
9.33756323541516
100
AcDbArc
 50
181.1508954655483
 51
198.8505178721118
  0
ARC
  5
19511
330
1E
100
AcDbEntity
  8
DETAIL
  6
CONTINUOUS
100
AcDbCircle
 10
-126.1857677611105
 20
-145.2503147615169
 30
0.0
 40
9.303138114700622
100
AcDbArc
 50
341.1324446327767
 51
359.4887518888008
  0
LINE
  5
19512
330
1E
100
AcDbEntity
  8
DETAIL
  6
CONTINUOUS
100
AcDbLine
 10
-159.2551796912784
 20
-174.3644430563785
 30
0.0
 11
-145.4746285348636
 21
-174.408889047609
 31
0.0
  0
LINE
  5
19513
330
1E
100
AcDbEntity
  8
DETAIL
  6
CONTINUOUS
100
AcDbLine
 10
-151.8395073135079
 20
-172.0180867301636
 30
0.0
 11
-152.855717477022
 21
-172.0180858056394
 31
0.0
  0
LINE
  5
19514
330
1E
100
AcDbEntity
  8
DETAIL
  6
CONTINUOUS
100
AcDbLine
 10
-152.8557174770111
 20
-172.7716495831798
 30
0.0
 11
-151.8392825229866
 21
-172.7716495831798
 31
0.0
  0
LINE
  5
19515
330
1E
100
AcDbEntity
  8
DETAIL
  6
CONTINUOUS
100
AcDbLine
 10
-153.8371822005328
 20
-172.0264419293838
 30
0.0
 11
-153.8372825229861
 21
-171.4000031368031
 31
0.0
  0
LINE
  5
19516
330
1E
100
AcDbEntity
  8
DETAIL
  6
CONTINUOUS
100
AcDbLine
 10
-161.8549490492014
 20
-168.88889996281
 30
0.0
 11
-162.0602439666535
 21
-163.1419079999689
 31
0.0
  0
LINE
  5
19517
330
1E
100
AcDbEntity
  8
DETAIL
  6
CONTINUOUS
100
AcDbLine
 10
-160.30215056458
 20
-162.5969802897641
 30
0.0
 11
-155.5153454730761
 21
-162.5958785416891
 31
0.0
  0
LINE
  5
19518
330
1E
100
AcDbEntity
  8
DETAIL
  6
CONTINUOUS
100
AcDbLine
 10
-161.8549490492014
 20
-168.88889996281
 30
0.0
 11
-162.0602439666535
 21
-163.1419079999689
 31
0.0
  0
LINE
  5
19519
330
1E
100
AcDbEntity
  8
DETAIL
  6
CONTINUOUS
100
AcDbLine
 10
-160.30215056458
 20
-162.5969802897641
 30
0.0
 11
-155.1353851204849
 21
-162.5957910886639
 31
0.0
  0
ARC
  5
1951A
330
1E
100
AcDbEntity
  8
DETAIL
  6
CONTINUOUS
100
AcDbCircle
 10
-152.9449155542579
 20
-171.8702109630179
 30
0.0
 40
0.9058409810246523
100
AcDbArc
 50
189.9314979901563
 51
275.6510677296061
  0
ARC
  5
1951B
330
1E
100
AcDbEntity
  8
DETAIL
  6
CONTINUOUS
100
AcDbCircle
 10
-155.5538448455763
 20
-170.6488025045821
 30
0.0
 40
1.873736533556753
100
AcDbArc
 50
336.3648900348446
 51
357.9311523667779
  0
ARC
  5
1951C
330
1E
100
AcDbEntity
  8
DETAIL
  6
CONTINUOUS
100
AcDbCircle
 10
-152.9182098878509
 20
-171.581370390339
 30
0.0
 40
0.4411958765896994
100
AcDbArc
 50
193.8924280315769
 51
278.1724350940846
  0
ARC
  5
1951D
330
1E
100
AcDbEntity
  8
DETAIL
  6
CONTINUOUS
100
AcDbCircle
 10
-153.7894896044425
 20
-171.5709058305918
 30
0.0
 40
0.4580258955822921
100
AcDbArc
 50
264.0231618623662
 51
345.2782887542624
  0
LINE
  5
1951E
330
1E
100
AcDbEntity
  8
DETAIL
  6
CONTINUOUS
100
AcDbLine
 10
-153.8373237190215
 20
-162.309484383841
 30
0.0
 11
-153.6813296703248
 21
-170.7164450624908
 31
0.0
  0
ARC
  5
1951F
330
1E
100
AcDbEntity
  8
DETAIL
  6
CONTINUOUS
100
AcDbCircle
 10
-153.4441115206218
 20
-165.0067951763351
 30
0.0
 40
2.945054685461506
100
AcDbArc
 50
88.10062859974328
 51
264.3727778097368
  0
LINE
  5
19520
330
1E
100
AcDbEntity
  8
DETAIL
  6
CONTINUOUS
100
AcDbLine
 10
-162.3470090637411
 20
-171.5413062851279
 30
0.0
 11
-161.3397231285406
 21
-171.5413073064618
 31
0.0
  0
ARC
  5
19521
330
1E
100
AcDbEntity
  8
DETAIL
  6
CONTINUOUS
100
AcDbCircle
 10
-162.3334386088363
 20
-169.3883999628085
 30
0.0
 40
0.4994999999987614
100
AcDbArc
 50
90.0
 51
171.4381733824064
  0
LINE
  5
19522
330
1E
100
AcDbEntity
  8
DETAIL
  6
CONTINUOUS
100
AcDbLine
 10
-162.8273720757869
 20
-169.3140361259946
 30
0.0
 11
-162.836991250825
 21
-169.4055662251606
 31
0.0
  0
LINE
  5
19523
330
1E
100
AcDbEntity
  8
DETAIL
  6
CONTINUOUS
100
AcDbLine
 10
-162.836991250825
 20
-169.4055662251606
 30
0.0
 11
-162.836991250825
 21
-171.108213593727
 31
0.0
  0
ARC
  5
19524
330
1E
100
AcDbEntity
  8
DETAIL
  6
CONTINUOUS
100
AcDbCircle
 10
-162.3751851889983
 20
-171.0794649380044
 30
0.0
 40
0.4627000366823176
100
AcDbArc
 50
183.5622177582161
 51
273.4911872440024
  0
ARC
  5
19525
330
1E
100
AcDbEntity
  8
DETAIL
  6
CONTINUOUS
100
AcDbCircle
 10
-157.2408719045041
 20
-172.0530150855096
 30
0.0
 40
3.065963979627565
100
AcDbArc
 50
178.6791876201162
 51
228.9292821428444
  0
ARC
  5
19526
330
1E
100
AcDbEntity
  8
DETAIL
  6
CONTINUOUS
100
AcDbCircle
 10
-160.1564798541702
 20
-166.175477011878
 30
0.0
 40
3.581460420831991
100
AcDbArc
 50
92.33106579370632
 51
122.1109753310676
  0
LINE
  5
19527
330
1E
100
AcDbEntity
  8
DETAIL
  6
CONTINUOUS
100
AcDbLine
 10
-161.3444057436872
 20
-171.9823431345306
 30
0.0
 11
-161.3444057436872
 21
-171.5413073017137
 31
0.0
  0
LINE
  5
19528
330
1E
100
AcDbEntity
  8
DETAIL
  6
CONTINUOUS
100
AcDbLine
 10
-161.8549490492013
 20
-168.88889996281
 30
0.0
 11
-162.3334386088363
 21
-168.88889996281
 31
0.0
  0
LINE
  5
19529
330
1E
100
AcDbEntity
  8
DETAIL
  6
CONTINUOUS
100
AcDbLine
 10
-161.8549490492013
 20
-168.88889996281
 30
0.0
 11
-162.3334386088363
 21
-168.88889996281
 31
0.0
  0
LINE
  5
1952A
330
1E
100
AcDbEntity
  8
DETAIL
  6
CONTINUOUS
100
AcDbLine
 10
-161.3444057436872
 20
-171.9823431345306
 30
0.0
 11
-160.3060212646036
 21
-171.9823431345306
 31
0.0
  0
LINE
  5
1952B
330
1E
100
AcDbEntity
  8
DETAIL
  6
CONTINUOUS
100
AcDbLine
 10
-161.3444057436872
 20
-171.9823431345306
 30
0.0
 11
-160.3060212646036
 21
-171.9823431345306
 31
0.0
  0
LINE
  5
1952C
330
1E
100
AcDbEntity
  8
DETAIL
  6
CONTINUOUS
100
AcDbLine
 10
-152.855717477022
 20
-172.7716495831795
 30
0.0
 11
-152.8469934126668
 21
-143.5260623241881
 31
0.0
  0
LINE
  5
1952D
330
1E
100
AcDbEntity
  8
DETAIL
  6
CONTINUOUS
100
AcDbLine
 10
-153.3464999999969
 20
-148.2587774086127
 30
0.0
 11
-153.3464999999958
 21
-162.0633585639041
 31
0.0
  0
ARC
  5
1952E
330
1E
100
AcDbEntity
  8
DETAIL
  6
CONTINUOUS
100
AcDbCircle
 10
-151.7500838536443
 20
-171.8702124477553
 30
0.0
 40
0.9058395618070807
100
AcDbArc
 50
264.3488857532338
 51
350.0688060595861
  0
ARC
  5
1952F
330
1E
100
AcDbEntity
  8
DETAIL
  6
CONTINUOUS
100
AcDbCircle
 10
-150.905510756872
 20
-171.5709026694065
 30
0.0
 40
0.4580256036283231
100
AcDbArc
 50
194.7217501057241
 51
275.9768903239495
  0
ARC
  5
19530
330
1E
100
AcDbEntity
  8
DETAIL
  6
CONTINUOUS
100
AcDbCircle
 10
-151.2309087771235
 20
-165.0140250982289
 30
0.0
 40
2.92509978904237
100
AcDbArc
 50
275.2765866849069
 51
92.30395450675452
  0
ARC
  5
19531
330
1E
100
AcDbEntity
  8
DETAIL
  6
CONTINUOUS
100
AcDbCircle
 10
-151.7767360142778
 20
-171.5814090499559
 30
0.0
 40
0.4411333751892939
100
AcDbArc
 50
261.8487961061412
 51
346.1111293280362
  0
LINE
  5
19532
330
1E
100
AcDbEntity
  8
DETAIL
  6
CONTINUOUS
100
AcDbLine
 10
-150.8578177762692
 20
-172.0264384343803
 30
0.0
 11
-150.8577174770151
 21
-171.4000031368063
 31
0.0
  0
LINE
  5
19533
330
1E
100
AcDbEntity
  8
DETAIL
  6
CONTINUOUS
100
AcDbLine
 10
-142.8400509507982
 20
-168.88889996281
 30
0.0
 11
-142.6347560333461
 21
-163.1419079999703
 31
0.0
  0
LINE
  5
19534
330
1E
100
AcDbEntity
  8
DETAIL
  6
CONTINUOUS
100
AcDbLine
 10
-149.1796916390203
 20
-162.5969802897641
 30
0.0
 11
-144.3928494303918
 21
-162.5969802897641
 31
0.0
  0
LINE
  5
19535
330
1E
100
AcDbEntity
  8
DETAIL
  6
CONTINUOUS
100
AcDbLine
 10
-141.8580087491745
 20
-169.4055662251625
 30
0.0
 11
-141.8580087491745
 21
-171.108213593727
 31
0.0
  0
LINE
  5
19536
330
1E
100
AcDbEntity
  8
DETAIL
  6
CONTINUOUS
100
AcDbLine
 10
-142.8400509507982
 20
-168.88889996281
 30
0.0
 11
-142.6347560333461
 21
-163.1419079999703
 31
0.0
  0
LINE
  5
19537
330
1E
100
AcDbEntity
  8
DETAIL
  6
CONTINUOUS
100
AcDbLine
 10
-149.583455236131
 20
-162.5969802897641
 30
0.0
 11
-144.3928494303918
 21
-162.5969802897641
 31
0.0
  0
LINE
  5
19538
330
1E
100
AcDbEntity
  8
DETAIL
  6
CONTINUOUS
100
AcDbLine
 10
-141.8580087491745
 20
-169.4055662251625
 30
0.0
 11
-141.8580087491745
 21
-171.108213593727
 31
0.0
  0
ARC
  5
19539
330
1E
100
AcDbEntity
  8
DETAIL
  6
CONTINUOUS
100
AcDbCircle
 10
-149.1411516542874
 20
-170.6488013649058
 30
0.0
 40
1.873740197001145
100
AcDbArc
 50
182.0688695259963
 51
203.6350989826336
  0
LINE
  5
1953A
330
1E
100
AcDbEntity
  8
DETAIL
  6
CONTINUOUS
100
AcDbLine
 10
-150.8576748915774
 20
-162.3094865182578
 30
0.0
 11
-151.0136704647548
 21
-170.7164447703989
 31
0.0
  0
LINE
  5
1953B
330
1E
100
AcDbEntity
  8
DETAIL
  6
CONTINUOUS
100
AcDbLine
 10
-142.3479909362695
 20
-171.5413062851333
 30
0.0
 11
-143.3552767201371
 21
-171.541321518647
 31
0.0
  0
LINE
  5
1953C
330
1E
100
AcDbEntity
  8
DETAIL
  6
CONTINUOUS
100
AcDbLine
 10
-143.3552767201371
 20
-171.541321518647
 30
0.0
 11
-143.3516072752108
 21
-171.8869311448746
 31
0.0
  0
LINE
  5
1953D
330
1E
100
AcDbEntity
  8
DETAIL
  6
CONTINUOUS
100
AcDbLine
 10
-143.3516072752108
 20
-171.8869311448746
 30
0.0
 11
-143.350594256325
 21
-171.9823431345306
 31
0.0
  0
ARC
  5
1953E
330
1E
100
AcDbEntity
  8
DETAIL
  6
CONTINUOUS
100
AcDbCircle
 10
-142.3749246517244
 20
-169.405643109343
 30
0.0
 40
0.5169159082676897
100
AcDbArc
 50
0.0085219646151027
 51
88.51862995785579
  0
ARC
  5
1953F
330
1E
100
AcDbEntity
  8
DETAIL
  6
CONTINUOUS
100
AcDbCircle
 10
-142.3198148567871
 20
-171.0794648862114
 30
0.0
 40
0.4627000855988304
100
AcDbArc
 50
266.508818804114
 51
356.4377761929571
  0
ARC
  5
19540
330
1E
100
AcDbEntity
  8
DETAIL
  6
CONTINUOUS
100
AcDbCircle
 10
-147.7384360711248
 20
-171.9006462581518
 30
0.0
 40
3.378772921061041
100
AcDbArc
 50
312.0677427595781
 51
358.6144844428809
  0
ARC
  5
19541
330
1E
100
AcDbEntity
  8
DETAIL
  6
CONTINUOUS
100
AcDbCircle
 10
-144.8564131980046
 20
-167.2010913542751
 30
0.0
 40
4.627389119255126
100
AcDbArc
 50
61.30739406424525
 51
84.25056471303333
  0
LINE
  5
19542
330
1E
100
AcDbEntity
  8
DETAIL
  6
CONTINUOUS
100
AcDbLine
 10
-142.8400509507982
 20
-168.88889996281
 30
0.0
 11
-142.361561391176
 21
-168.88889996281
 31
0.0
  0
LINE
  5
19543
330
1E
100
AcDbEntity
  8
DETAIL
  6
CONTINUOUS
100
AcDbLine
 10
-142.8400509507982
 20
-168.88889996281
 30
0.0
 11
-142.361561391176
 21
-168.88889996281
 31
0.0
  0
LINE
  5
19544
330
1E
100
AcDbEntity
  8
DETAIL
  6
CONTINUOUS
100
AcDbLine
 10
-144.3606509873036
 20
-171.9823431345309
 30
0.0
 11
-143.350594256325
 21
-171.9823431345306
 31
0.0
  0
LINE
  5
19545
330
1E
100
AcDbEntity
  8
DETAIL
  6
CONTINUOUS
100
AcDbLine
 10
-151.8392825229866
 20
-172.7716495831795
 30
0.0
 11
-151.8480065873381
 21
-143.5260623422013
 31
0.0
  0
LINE
  5
19546
330
1E
100
AcDbEntity
  8
DETAIL
  6
CONTINUOUS
100
AcDbLine
 10
-151.3485000000027
 20
-148.2587774086127
 30
0.0
 11
-151.3485000000027
 21
-162.0912898929533
 31
0.0
  0
ARC
  5
19547
330
1E
100
AcDbEntity
  8
DETAIL
  6
CONTINUOUS
100
AcDbCircle
 10
-162.1497677626456
 20
-145.2503134350366
 30
0.0
 40
9.303138114700622
100
AcDbArc
 50
341.1324446327767
 51
359.4887518888008
  0
ARC
  5
19548
330
1E
100
AcDbEntity
  8
DETAIL
  6
CONTINUOUS
100
AcDbCircle
 10
-142.5117593078256
 20
-145.241808546555
 30
0.0
 40
9.33756323541516
100
AcDbArc
 50
181.1508954655483
 51
198.8505178721118
  0
LINE
  5
19549
330
1E
100
AcDbEntity
  8
DETAIL
  6
CONTINUOUS
100
AcDbLine
 10
-187.3124999999991
 20
-148.2587774086127
 30
0.0
 11
-187.312499999999
 21
-162.0912898929533
 31
0.0
  0
LINE
  5
1954A
330
1E
100
AcDbEntity
  8
DETAIL
  6
CONTINUOUS
100
AcDbLine
 10
-187.8032825229828
 20
-172.7716495831795
 30
0.0
 11
-187.8120065873345
 21
-143.5260623422013
 31
0.0
  0
LINE
  5
1954B
330
1E
100
AcDbEntity
  8
DETAIL
  6
CONTINUOUS
100
AcDbLine
 10
-180.3246509872998
 20
-171.9823431345309
 30
0.0
 11
-179.3145942563214
 21
-171.9823431345306
 31
0.0
  0
LINE
  5
1954C
330
1E
100
AcDbEntity
  8
DETAIL
  6
CONTINUOUS
100
AcDbLine
 10
-178.8040509507944
 20
-168.88889996281
 30
0.0
 11
-178.3255613911724
 21
-168.88889996281
 31
0.0
  0
LINE
  5
1954D
330
1E
100
AcDbEntity
  8
DETAIL
  6
CONTINUOUS
100
AcDbLine
 10
-178.8040509507944
 20
-168.88889996281
 30
0.0
 11
-178.3255613911724
 21
-168.88889996281
 31
0.0
  0
ARC
  5
1954E
330
1E
100
AcDbEntity
  8
DETAIL
  6
CONTINUOUS
100
AcDbCircle
 10
-180.8204131980009
 20
-167.2010913542751
 30
0.0
 40
4.627389119255126
100
AcDbArc
 50
61.30739406424525
 51
84.25056471303333
  0
ARC
  5
1954F
330
1E
100
AcDbEntity
  8
DETAIL
  6
CONTINUOUS
100
AcDbCircle
 10
-183.7024360711211
 20
-171.9006462581518
 30
0.0
 40
3.378772921061041
100
AcDbArc
 50
312.0677427595781
 51
358.6144844428809
  0
ARC
  5
19550
330
1E
100
AcDbEntity
  8
DETAIL
  6
CONTINUOUS
100
AcDbCircle
 10
-178.2838148567834
 20
-171.0794648862114
 30
0.0
 40
0.4627000855988304
100
AcDbArc
 50
266.508818804114
 51
356.4377761929571
  0
ARC
  5
19551
330
1E
100
AcDbEntity
  8
DETAIL
  6
CONTINUOUS
100
AcDbCircle
 10
-178.3389246517208
 20
-169.405643109343
 30
0.0
 40
0.5169159082676897
100
AcDbArc
 50
0.0085219646151027
 51
88.51862995785579
  0
LINE
  5
19552
330
1E
100
AcDbEntity
  8
DETAIL
  6
CONTINUOUS
100
AcDbLine
 10
-179.315607275207
 20
-171.8869311448746
 30
0.0
 11
-179.3145942563214
 21
-171.9823431345306
 31
0.0
  0
LINE
  5
19553
330
1E
100
AcDbEntity
  8
DETAIL
  6
CONTINUOUS
100
AcDbLine
 10
-179.3192767201334
 20
-171.541321518647
 30
0.0
 11
-179.315607275207
 21
-171.8869311448746
 31
0.0
  0
LINE
  5
19554
330
1E
100
AcDbEntity
  8
DETAIL
  6
CONTINUOUS
100
AcDbLine
 10
-178.3119909362658
 20
-171.5413062851333
 30
0.0
 11
-179.3192767201334
 21
-171.541321518647
 31
0.0
  0
LINE
  5
19555
330
1E
100
AcDbEntity
  8
DETAIL
  6
CONTINUOUS
100
AcDbLine
 10
-186.8216748915738
 20
-162.3094865182578
 30
0.0
 11
-186.9776704647511
 21
-170.7164447703989
 31
0.0
  0
ARC
  5
19556
330
1E
100
AcDbEntity
  8
DETAIL
  6
CONTINUOUS
100
AcDbCircle
 10
-185.1051516542838
 20
-170.6488013649058
 30
0.0
 40
1.873740197001145
100
AcDbArc
 50
182.0688695259963
 51
203.6350989826336
  0
LINE
  5
19557
330
1E
100
AcDbEntity
  8
DETAIL
  6
CONTINUOUS
100
AcDbLine
 10
-177.8220087491708
 20
-169.4055662251625
 30
0.0
 11
-177.8220087491708
 21
-171.108213593727
 31
0.0
  0
LINE
  5
19558
330
1E
100
AcDbEntity
  8
DETAIL
  6
CONTINUOUS
100
AcDbLine
 10
-185.5474552361274
 20
-162.5969802897641
 30
0.0
 11
-180.3568494303881
 21
-162.5969802897641
 31
0.0
  0
LINE
  5
19559
330
1E
100
AcDbEntity
  8
DETAIL
  6
CONTINUOUS
100
AcDbLine
 10
-178.8040509507944
 20
-168.88889996281
 30
0.0
 11
-178.5987560333424
 21
-163.1419079999703
 31
0.0
  0
LINE
  5
1955A
330
1E
100
AcDbEntity
  8
DETAIL
  6
CONTINUOUS
100
AcDbLine
 10
-177.8220087491708
 20
-169.4055662251625
 30
0.0
 11
-177.8220087491708
 21
-171.108213593727
 31
0.0
  0
LINE
  5
1955B
330
1E
100
AcDbEntity
  8
DETAIL
  6
CONTINUOUS
100
AcDbLine
 10
-185.1436916390166
 20
-162.5969802897641
 30
0.0
 11
-180.3568494303881
 21
-162.5969802897641
 31
0.0
  0
LINE
  5
1955C
330
1E
100
AcDbEntity
  8
DETAIL
  6
CONTINUOUS
100
AcDbLine
 10
-178.8040509507944
 20
-168.88889996281
 30
0.0
 11
-178.5987560333424
 21
-163.1419079999703
 31
0.0
  0
LINE
  5
1955D
330
1E
100
AcDbEntity
  8
DETAIL
  6
CONTINUOUS
100
AcDbLine
 10
-186.8218177762654
 20
-172.0264384343803
 30
0.0
 11
-186.8217174770115
 21
-171.4000031368063
 31
0.0
  0
ARC
  5
1955E
330
1E
100
AcDbEntity
  8
DETAIL
  6
CONTINUOUS
100
AcDbCircle
 10
-187.7407360142741
 20
-171.5814090499559
 30
0.0
 40
0.4411333751892939
100
AcDbArc
 50
261.8487961061412
 51
346.1111293280362
  0
ARC
  5
1955F
330
1E
100
AcDbEntity
  8
DETAIL
  6
CONTINUOUS
100
AcDbCircle
 10
-187.1949087771199
 20
-165.0140250982289
 30
0.0
 40
2.92509978904237
100
AcDbArc
 50
275.2765866849069
 51
92.30395450675452
  0
ARC
  5
19560
330
1E
100
AcDbEntity
  8
DETAIL
  6
CONTINUOUS
100
AcDbCircle
 10
-186.8695107568683
 20
-171.5709026694065
 30
0.0
 40
0.4580256036283231
100
AcDbArc
 50
194.7217501057241
 51
275.9768903239495
  0
ARC
  5
19561
330
1E
100
AcDbEntity
  8
DETAIL
  6
CONTINUOUS
100
AcDbCircle
 10
-187.7140838536406
 20
-171.8702124477553
 30
0.0
 40
0.9058395618070807
100
AcDbArc
 50
264.3488857532338
 51
350.0688060595861
  0
LINE
  5
19562
330
1E
100
AcDbEntity
  8
DETAIL
  6
CONTINUOUS
100
AcDbLine
 10
-189.3104999999931
 20
-148.2587774086127
 30
0.0
 11
-189.3104999999921
 21
-162.0633585639041
 31
0.0
  0
LINE
  5
19563
330
1E
100
AcDbEntity
  8
DETAIL
  6
CONTINUOUS
100
AcDbLine
 10
-188.8197174770184
 20
-172.7716495831795
 30
0.0
 11
-188.8109934126631
 21
-143.5260623241881
 31
0.0
  0
LINE
  5
19564
330
1E
100
AcDbEntity
  8
DETAIL
  6
CONTINUOUS
100
AcDbLine
 10
-197.3084057436835
 20
-171.9823431345306
 30
0.0
 11
-196.2700212646
 21
-171.9823431345306
 31
0.0
  0
LINE
  5
19565
330
1E
100
AcDbEntity
  8
DETAIL
  6
CONTINUOUS
100
AcDbLine
 10
-197.3084057436835
 20
-171.9823431345306
 30
0.0
 11
-196.2700212646
 21
-171.9823431345306
 31
0.0
  0
LINE
  5
19566
330
1E
100
AcDbEntity
  8
DETAIL
  6
CONTINUOUS
100
AcDbLine
 10
-197.8189490491975
 20
-168.88889996281
 30
0.0
 11
-198.2974386088325
 21
-168.88889996281
 31
0.0
  0
LINE
  5
19567
330
1E
100
AcDbEntity
  8
DETAIL
  6
CONTINUOUS
100
AcDbLine
 10
-197.8189490491975
 20
-168.88889996281
 30
0.0
 11
-198.2974386088325
 21
-168.88889996281
 31
0.0
  0
LINE
  5
19568
330
1E
100
AcDbEntity
  8
DETAIL
  6
CONTINUOUS
100
AcDbLine
 10
-197.3084057436835
 20
-171.9823431345306
 30
0.0
 11
-197.3084057436835
 21
-171.5413073017137
 31
0.0
  0
ARC
  5
19569
330
1E
100
AcDbEntity
  8
DETAIL
  6
CONTINUOUS
100
AcDbCircle
 10
-196.1204798541666
 20
-166.175477011878
 30
0.0
 40
3.581460420831991
100
AcDbArc
 50
92.33106579370632
 51
122.1109753310676
  0
ARC
  5
1956A
330
1E
100
AcDbEntity
  8
DETAIL
  6
CONTINUOUS
100
AcDbCircle
 10
-193.2048719045005
 20
-172.0530150855096
 30
0.0
 40
3.065963979627565
100
AcDbArc
 50
178.6791876201162
 51
228.9292821428444
  0
ARC
  5
1956B
330
1E
100
AcDbEntity
  8
DETAIL
  6
CONTINUOUS
100
AcDbCircle
 10
-198.3391851889946
 20
-171.0794649380044
 30
0.0
 40
0.4627000366823176
100
AcDbArc
 50
183.5622177582161
 51
273.4911872440024
  0
LINE
  5
1956C
330
1E
100
AcDbEntity
  8
DETAIL
  6
CONTINUOUS
100
AcDbLine
 10
-198.8009912508214
 20
-169.4055662251606
 30
0.0
 11
-198.8009912508214
 21
-171.108213593727
 31
0.0
  0
LINE
  5
1956D
330
1E
100
AcDbEntity
  8
DETAIL
  6
CONTINUOUS
100
AcDbLine
 10
-198.7913720757832
 20
-169.3140361259946
 30
0.0
 11
-198.8009912508214
 21
-169.4055662251606
 31
0.0
  0
ARC
  5
1956E
330
1E
100
AcDbEntity
  8
DETAIL
  6
CONTINUOUS
100
AcDbCircle
 10
-198.2974386088325
 20
-169.3883999628085
 30
0.0
 40
0.4994999999987614
100
AcDbArc
 50
90.0
 51
171.4381733824064
  0
LINE
  5
1956F
330
1E
100
AcDbEntity
  8
DETAIL
  6
CONTINUOUS
100
AcDbLine
 10
-198.3110090637372
 20
-171.5413062851279
 30
0.0
 11
-197.303723128537
 21
-171.5413073064618
 31
0.0
  0
ARC
  5
19570
330
1E
100
AcDbEntity
  8
DETAIL
  6
CONTINUOUS
100
AcDbCircle
 10
-189.408111520618
 20
-165.0067951763351
 30
0.0
 40
2.945054685461506
100
AcDbArc
 50
88.10062859974328
 51
264.3727778097368
  0
LINE
  5
19571
330
1E
100
AcDbEntity
  8
DETAIL
  6
CONTINUOUS
100
AcDbLine
 10
-189.8013237190179
 20
-162.309484383841
 30
0.0
 11
-189.6453296703212
 21
-170.7164450624908
 31
0.0
  0
ARC
  5
19572
330
1E
100
AcDbEntity
  8
DETAIL
  6
CONTINUOUS
100
AcDbCircle
 10
-189.7534896044389
 20
-171.5709058305918
 30
0.0
 40
0.4580258955822921
100
AcDbArc
 50
264.0231618623662
 51
345.2782887542624
  0
ARC
  5
19573
330
1E
100
AcDbEntity
  8
DETAIL
  6
CONTINUOUS
100
AcDbCircle
 10
-188.8822098878471
 20
-171.581370390339
 30
0.0
 40
0.4411958765896994
100
AcDbArc
 50
193.8924280315769
 51
278.1724350940846
  0
ARC
  5
19574
330
1E
100
AcDbEntity
  8
DETAIL
  6
CONTINUOUS
100
AcDbCircle
 10
-191.5178448455725
 20
-170.6488025045821
 30
0.0
 40
1.873736533556753
100
AcDbArc
 50
336.3648900348446
 51
357.9311523667779
  0
ARC
  5
19575
330
1E
100
AcDbEntity
  8
DETAIL
  6
CONTINUOUS
100
AcDbCircle
 10
-188.9089155542541
 20
-171.8702109630179
 30
0.0
 40
0.9058409810246523
100
AcDbArc
 50
189.9314979901563
 51
275.6510677296061
  0
LINE
  5
19576
330
1E
100
AcDbEntity
  8
DETAIL
  6
CONTINUOUS
100
AcDbLine
 10
-196.2661505645765
 20
-162.5969802897641
 30
0.0
 11
-191.0993851204811
 21
-162.5957910886639
 31
0.0
  0
LINE
  5
19577
330
1E
100
AcDbEntity
  8
DETAIL
  6
CONTINUOUS
100
AcDbLine
 10
-197.8189490491977
 20
-168.88889996281
 30
0.0
 11
-198.0242439666499
 21
-163.1419079999689
 31
0.0
  0
LINE
  5
19578
330
1E
100
AcDbEntity
  8
DETAIL
  6
CONTINUOUS
100
AcDbLine
 10
-196.2661505645765
 20
-162.5969802897641
 30
0.0
 11
-191.4793454730725
 21
-162.5958785416891
 31
0.0
  0
LINE
  5
19579
330
1E
100
AcDbEntity
  8
DETAIL
  6
CONTINUOUS
100
AcDbLine
 10
-197.8189490491977
 20
-168.88889996281
 30
0.0
 11
-198.0242439666499
 21
-163.1419079999689
 31
0.0
  0
LINE
  5
1957A
330
1E
100
AcDbEntity
  8
DETAIL
  6
CONTINUOUS
100
AcDbLine
 10
-189.8011822005291
 20
-172.0264419293838
 30
0.0
 11
-189.8012825229825
 21
-171.4000031368031
 31
0.0
  0
LINE
  5
1957B
330
1E
100
AcDbEntity
  8
DETAIL
  6
CONTINUOUS
100
AcDbLine
 10
-188.8197174770074
 20
-172.7716495831798
 30
0.0
 11
-187.8032825229828
 21
-172.7716495831798
 31
0.0
  0
LINE
  5
1957C
330
1E
100
AcDbEntity
  8
DETAIL
  6
CONTINUOUS
100
AcDbLine
 10
-187.8035073135041
 20
-172.0180867301636
 30
0.0
 11
-188.8197174770184
 21
-172.0180858056394
 31
0.0
  0
LINE
  5
1957D
330
1E
100
AcDbEntity
  8
DETAIL
  6
CONTINUOUS
100
AcDbLine
 10
-195.2191796912748
 20
-174.3644430563785
 30
0.0
 11
-181.4386285348599
 21
-174.408889047609
 31
0.0
  0
ARC
  5
1957E
330
1E
100
AcDbEntity
  8
DETAIL
  6
CONTINUOUS
100
AcDbCircle
 10
-178.475759307822
 20
-145.241808546555
 30
0.0
 40
9.33756323541516
100
AcDbArc
 50
181.1508954655483
 51
198.8505178721118
  0
ARC
  5
1957F
330
1E
100
AcDbEntity
  8
DETAIL
  6
CONTINUOUS
100
AcDbCircle
 10
-198.1137677626419
 20
-145.2503134350366
 30
0.0
 40
9.303138114700622
100
AcDbArc
 50
341.1324446327767
 51
359.4887518888008
  0
LINE
  5
19583
330
1E
100
AcDbEntity
  8
DETAIL
  6
CONTINUOUS
100
AcDbLine
 10
-275.1391796912748
 20
-174.3644430563785
 30
0.0
 11
-261.35862853486
 21
-174.408889047609
 31
0.0
  0
LINE
  5
19584
330
1E
100
AcDbEntity
  8
DETAIL
  6
CONTINUOUS
100
AcDbLine
 10
-267.7235073135042
 20
-172.0180867301636
 30
0.0
 11
-268.7397174770185
 21
-172.0180858056394
 31
0.0
  0
LINE
  5
19585
330
1E
100
AcDbEntity
  8
DETAIL
  6
CONTINUOUS
100
AcDbLine
 10
-268.7397174770076
 20
-172.7716495831798
 30
0.0
 11
-267.723282522983
 21
-172.7716495831798
 31
0.0
  0
LINE
  5
19586
330
1E
100
AcDbEntity
  8
DETAIL
  6
CONTINUOUS
100
AcDbLine
 10
-269.7211822005292
 20
-172.0264419293838
 30
0.0
 11
-269.7212825229826
 21
-171.4000031368031
 31
0.0
  0
LINE
  5
19587
330
1E
100
AcDbEntity
  8
DETAIL
  6
CONTINUOUS
100
AcDbLine
 10
-277.7389490491978
 20
-168.88889996281
 30
0.0
 11
-277.94424396665
 21
-163.1419079999689
 31
0.0
  0
LINE
  5
19588
330
1E
100
AcDbEntity
  8
DETAIL
  6
CONTINUOUS
100
AcDbLine
 10
-276.1861505645764
 20
-162.5969802897641
 30
0.0
 11
-271.3993454730725
 21
-162.5958785416891
 31
0.0
  0
LINE
  5
19589
330
1E
100
AcDbEntity
  8
DETAIL
  6
CONTINUOUS
100
AcDbLine
 10
-277.7389490491978
 20
-168.88889996281
 30
0.0
 11
-277.94424396665
 21
-163.1419079999689
 31
0.0
  0
LINE
  5
1958A
330
1E
100
AcDbEntity
  8
DETAIL
  6
CONTINUOUS
100
AcDbLine
 10
-276.1861505645764
 20
-162.5969802897641
 30
0.0
 11
-271.0193851204811
 21
-162.5957910886639
 31
0.0
  0
ARC
  5
1958B
330
1E
100
AcDbEntity
  8
DETAIL
  6
CONTINUOUS
100
AcDbCircle
 10
-268.8289155542542
 20
-171.8702109630179
 30
0.0
 40
0.9058409810246523
100
AcDbArc
 50
189.9314979901563
 51
275.6510677296061
  0
ARC
  5
1958C
330
1E
100
AcDbEntity
  8
DETAIL
  6
CONTINUOUS
100
AcDbCircle
 10
-271.4378448455727
 20
-170.6488025045821
 30
0.0
 40
1.873736533556753
100
AcDbArc
 50
336.3648900348446
 51
357.9311523667779
  0
ARC
  5
1958D
330
1E
100
AcDbEntity
  8
DETAIL
  6
CONTINUOUS
100
AcDbCircle
 10
-268.8022098878473
 20
-171.581370390339
 30
0.0
 40
0.4411958765896994
100
AcDbArc
 50
193.8924280315769
 51
278.1724350940846
  0
ARC
  5
1958E
330
1E
100
AcDbEntity
  8
DETAIL
  6
CONTINUOUS
100
AcDbCircle
 10
-269.6734896044389
 20
-171.5709058305918
 30
0.0
 40
0.4580258955822921
100
AcDbArc
 50
264.0231618623662
 51
345.2782887542624
  0
LINE
  5
1958F
330
1E
100
AcDbEntity
  8
DETAIL
  6
CONTINUOUS
100
AcDbLine
 10
-269.7213237190179
 20
-162.309484383841
 30
0.0
 11
-269.5653296703212
 21
-170.7164450624908
 31
0.0
  0
ARC
  5
19590
330
1E
100
AcDbEntity
  8
DETAIL
  6
CONTINUOUS
100
AcDbCircle
 10
-269.3281115206181
 20
-165.0067951763351
 30
0.0
 40
2.945054685461506
100
AcDbArc
 50
88.10062859974328
 51
264.3727778097368
  0
LINE
  5
19591
330
1E
100
AcDbEntity
  8
DETAIL
  6
CONTINUOUS
100
AcDbLine
 10
-278.2310090637374
 20
-171.5413062851279
 30
0.0
 11
-277.223723128537
 21
-171.5413073064618
 31
0.0
  0
ARC
  5
19592
330
1E
100
AcDbEntity
  8
DETAIL
  6
CONTINUOUS
100
AcDbCircle
 10
-278.2174386088327
 20
-169.3883999628085
 30
0.0
 40
0.4994999999987614
100
AcDbArc
 50
90.0
 51
171.4381733824064
  0
LINE
  5
19593
330
1E
100
AcDbEntity
  8
DETAIL
  6
CONTINUOUS
100
AcDbLine
 10
-278.7113720757834
 20
-169.3140361259946
 30
0.0
 11
-278.7209912508215
 21
-169.4055662251606
 31
0.0
  0
LINE
  5
19594
330
1E
100
AcDbEntity
  8
DETAIL
  6
CONTINUOUS
100
AcDbLine
 10
-278.7209912508215
 20
-169.4055662251606
 30
0.0
 11
-278.7209912508215
 21
-171.108213593727
 31
0.0
  0
ARC
  5
19595
330
1E
100
AcDbEntity
  8
DETAIL
  6
CONTINUOUS
100
AcDbCircle
 10
-278.2591851889946
 20
-171.0794649380044
 30
0.0
 40
0.4627000366823176
100
AcDbArc
 50
183.5622177582161
 51
273.4911872440024
  0
ARC
  5
19596
330
1E
100
AcDbEntity
  8
DETAIL
  6
CONTINUOUS
100
AcDbCircle
 10
-273.1248719045006
 20
-172.0530150855096
 30
0.0
 40
3.065963979627565
100
AcDbArc
 50
178.6791876201162
 51
228.9292821428444
  0
ARC
  5
19597
330
1E
100
AcDbEntity
  8
DETAIL
  6
CONTINUOUS
100
AcDbCircle
 10
-276.0404798541666
 20
-166.175477011878
 30
0.0
 40
3.581460420831991
100
AcDbArc
 50
92.33106579370632
 51
122.1109753310676
  0
LINE
  5
19598
330
1E
100
AcDbEntity
  8
DETAIL
  6
CONTINUOUS
100
AcDbLine
 10
-277.2284057436836
 20
-171.9823431345306
 30
0.0
 11
-277.2284057436836
 21
-171.5413073017137
 31
0.0
  0
LINE
  5
19599
330
1E
100
AcDbEntity
  8
DETAIL
  6
CONTINUOUS
100
AcDbLine
 10
-277.7389490491976
 20
-168.88889996281
 30
0.0
 11
-278.2174386088327
 21
-168.88889996281
 31
0.0
  0
LINE
  5
1959A
330
1E
100
AcDbEntity
  8
DETAIL
  6
CONTINUOUS
100
AcDbLine
 10
-277.7389490491976
 20
-168.88889996281
 30
0.0
 11
-278.2174386088327
 21
-168.88889996281
 31
0.0
  0
LINE
  5
1959B
330
1E
100
AcDbEntity
  8
DETAIL
  6
CONTINUOUS
100
AcDbLine
 10
-277.2284057436836
 20
-171.9823431345306
 30
0.0
 11
-276.1900212646001
 21
-171.9823431345306
 31
0.0
  0
LINE
  5
1959C
330
1E
100
AcDbEntity
  8
DETAIL
  6
CONTINUOUS
100
AcDbLine
 10
-277.2284057436836
 20
-171.9823431345306
 30
0.0
 11
-276.1900212646001
 21
-171.9823431345306
 31
0.0
  0
LINE
  5
1959D
330
1E
100
AcDbEntity
  8
DETAIL
  6
CONTINUOUS
100
AcDbLine
 10
-268.7397174770185
 20
-172.7716495831795
 30
0.0
 11
-268.7309934126632
 21
-143.5260623241881
 31
0.0
  0
LINE
  5
1959E
330
1E
100
AcDbEntity
  8
DETAIL
  6
CONTINUOUS
100
AcDbLine
 10
-269.2304999999933
 20
-148.2587774086127
 30
0.0
 11
-269.2304999999921
 21
-162.0633585639041
 31
0.0
  0
ARC
  5
1959F
330
1E
100
AcDbEntity
  8
DETAIL
  6
CONTINUOUS
100
AcDbCircle
 10
-267.6340838536406
 20
-171.8702124477553
 30
0.0
 40
0.9058395618070807
100
AcDbArc
 50
264.3488857532338
 51
350.0688060595861
  0
ARC
  5
195A0
330
1E
100
AcDbEntity
  8
DETAIL
  6
CONTINUOUS
100
AcDbCircle
 10
-266.7895107568682
 20
-171.5709026694065
 30
0.0
 40
0.4580256036283231
100
AcDbArc
 50
194.7217501057241
 51
275.9768903239495
  0
ARC
  5
195A1
330
1E
100
AcDbEntity
  8
DETAIL
  6
CONTINUOUS
100
AcDbCircle
 10
-267.11490877712
 20
-165.0140250982289
 30
0.0
 40
2.92509978904237
100
AcDbArc
 50
275.2765866849069
 51
92.30395450675452
  0
ARC
  5
195A2
330
1E
100
AcDbEntity
  8
DETAIL
  6
CONTINUOUS
100
AcDbCircle
 10
-267.6607360142743
 20
-171.5814090499559
 30
0.0
 40
0.4411333751892939
100
AcDbArc
 50
261.8487961061412
 51
346.1111293280362
  0
LINE
  5
195A3
330
1E
100
AcDbEntity
  8
DETAIL
  6
CONTINUOUS
100
AcDbLine
 10
-266.7418177762655
 20
-172.0264384343803
 30
0.0
 11
-266.7417174770116
 21
-171.4000031368063
 31
0.0
  0
LINE
  5
195A4
330
1E
100
AcDbEntity
  8
DETAIL
  6
CONTINUOUS
100
AcDbLine
 10
-258.7240509507946
 20
-168.88889996281
 30
0.0
 11
-258.5187560333424
 21
-163.1419079999703
 31
0.0
  0
LINE
  5
195A5
330
1E
100
AcDbEntity
  8
DETAIL
  6
CONTINUOUS
100
AcDbLine
 10
-265.0636916390166
 20
-162.5969802897641
 30
0.0
 11
-260.2768494303882
 21
-162.5969802897641
 31
0.0
  0
LINE
  5
195A6
330
1E
100
AcDbEntity
  8
DETAIL
  6
CONTINUOUS
100
AcDbLine
 10
-257.7420087491709
 20
-169.4055662251625
 30
0.0
 11
-257.7420087491709
 21
-171.108213593727
 31
0.0
  0
LINE
  5
195A7
330
1E
100
AcDbEntity
  8
DETAIL
  6
CONTINUOUS
100
AcDbLine
 10
-258.7240509507946
 20
-168.88889996281
 30
0.0
 11
-258.5187560333424
 21
-163.1419079999703
 31
0.0
  0
LINE
  5
195A8
330
1E
100
AcDbEntity
  8
DETAIL
  6
CONTINUOUS
100
AcDbLine
 10
-265.4674552361275
 20
-162.5969802897641
 30
0.0
 11
-260.2768494303882
 21
-162.5969802897641
 31
0.0
  0
LINE
  5
195A9
330
1E
100
AcDbEntity
  8
DETAIL
  6
CONTINUOUS
100
AcDbLine
 10
-257.7420087491709
 20
-169.4055662251625
 30
0.0
 11
-257.7420087491709
 21
-171.108213593727
 31
0.0
  0
ARC
  5
195AA
330
1E
100
AcDbEntity
  8
DETAIL
  6
CONTINUOUS
100
AcDbCircle
 10
-265.0251516542839
 20
-170.6488013649058
 30
0.0
 40
1.873740197001145
100
AcDbArc
 50
182.0688695259963
 51
203.6350989826336
  0
LINE
  5
195AB
330
1E
100
AcDbEntity
  8
DETAIL
  6
CONTINUOUS
100
AcDbLine
 10
-266.7416748915738
 20
-162.3094865182578
 30
0.0
 11
-266.8976704647511
 21
-170.7164447703989
 31
0.0
  0
LINE
  5
195AC
330
1E
100
AcDbEntity
  8
DETAIL
  6
CONTINUOUS
100
AcDbLine
 10
-258.2319909362658
 20
-171.5413062851333
 30
0.0
 11
-259.2392767201336
 21
-171.541321518647
 31
0.0
  0
LINE
  5
195AD
330
1E
100
AcDbEntity
  8
DETAIL
  6
CONTINUOUS
100
AcDbLine
 10
-259.2392767201336
 20
-171.541321518647
 30
0.0
 11
-259.2356072752072
 21
-171.8869311448746
 31
0.0
  0
LINE
  5
195AE
330
1E
100
AcDbEntity
  8
DETAIL
  6
CONTINUOUS
100
AcDbLine
 10
-259.2356072752072
 20
-171.8869311448746
 30
0.0
 11
-259.2345942563214
 21
-171.9823431345306
 31
0.0
  0
ARC
  5
195AF
330
1E
100
AcDbEntity
  8
DETAIL
  6
CONTINUOUS
100
AcDbCircle
 10
-258.2589246517209
 20
-169.405643109343
 30
0.0
 40
0.5169159082676897
100
AcDbArc
 50
0.0085219646151027
 51
88.51862995785579
  0
ARC
  5
195B0
330
1E
100
AcDbEntity
  8
DETAIL
  6
CONTINUOUS
100
AcDbCircle
 10
-258.2038148567834
 20
-171.0794648862114
 30
0.0
 40
0.4627000855988304
100
AcDbArc
 50
266.508818804114
 51
356.4377761929571
  0
ARC
  5
195B1
330
1E
100
AcDbEntity
  8
DETAIL
  6
CONTINUOUS
100
AcDbCircle
 10
-263.6224360711211
 20
-171.9006462581518
 30
0.0
 40
3.378772921061041
100
AcDbArc
 50
312.0677427595781
 51
358.6144844428809
  0
ARC
  5
195B2
330
1E
100
AcDbEntity
  8
DETAIL
  6
CONTINUOUS
100
AcDbCircle
 10
-260.7404131980009
 20
-167.2010913542751
 30
0.0
 40
4.627389119255126
100
AcDbArc
 50
61.30739406424525
 51
84.25056471303333
  0
LINE
  5
195B3
330
1E
100
AcDbEntity
  8
DETAIL
  6
CONTINUOUS
100
AcDbLine
 10
-258.7240509507946
 20
-168.88889996281
 30
0.0
 11
-258.2455613911724
 21
-168.88889996281
 31
0.0
  0
LINE
  5
195B4
330
1E
100
AcDbEntity
  8
DETAIL
  6
CONTINUOUS
100
AcDbLine
 10
-258.7240509507946
 20
-168.88889996281
 30
0.0
 11
-258.2455613911724
 21
-168.88889996281
 31
0.0
  0
LINE
  5
195B5
330
1E
100
AcDbEntity
  8
DETAIL
  6
CONTINUOUS
100
AcDbLine
 10
-260.2446509872998
 20
-171.9823431345309
 30
0.0
 11
-259.2345942563214
 21
-171.9823431345306
 31
0.0
  0
LINE
  5
195B6
330
1E
100
AcDbEntity
  8
DETAIL
  6
CONTINUOUS
100
AcDbLine
 10
-267.723282522983
 20
-172.7716495831795
 30
0.0
 11
-267.7320065873345
 21
-143.5260623422013
 31
0.0
  0
LINE
  5
195B7
330
1E
100
AcDbEntity
  8
DETAIL
  6
CONTINUOUS
100
AcDbLine
 10
-267.232499999999
 20
-148.2587774086127
 30
0.0
 11
-267.232499999999
 21
-162.0912898929533
 31
0.0
  0
ARC
  5
195B8
330
1E
100
AcDbEntity
  8
DETAIL
  6
CONTINUOUS
100
AcDbCircle
 10
-345.0528719044968
 20
-172.0530150855096
 30
0.0
 40
3.065963979627565
100
AcDbArc
 50
178.6791876201162
 51
228.9292821428444
  0
LINE
  5
195B9
330
1E
100
AcDbEntity
  8
DETAIL
  6
CONTINUOUS
100
AcDbLine
 10
-348.1141505645727
 20
-162.5969802897641
 30
0.0
 11
-342.9473851204774
 21
-162.5957910886639
 31
0.0
  0
LINE
  5
195BA
330
1E
100
AcDbEntity
  8
DETAIL
  6
CONTINUOUS
100
AcDbLine
 10
-348.1141505645727
 20
-162.5969802897641
 30
0.0
 11
-343.3273454730688
 21
-162.5958785416891
 31
0.0
  0
LINE
  5
195BB
330
1E
100
AcDbEntity
  8
DETAIL
  6
CONTINUOUS
100
AcDbLine
 10
-349.1564057436799
 20
-171.9823431345306
 30
0.0
 11
-348.1180212645963
 21
-171.9823431345306
 31
0.0
  0
LINE
  5
195BC
330
1E
100
AcDbEntity
  8
DETAIL
  6
CONTINUOUS
100
AcDbLine
 10
-349.1564057436799
 20
-171.9823431345306
 30
0.0
 11
-348.1180212645963
 21
-171.9823431345306
 31
0.0
  0
LINE
  5
195BD
330
1E
100
AcDbEntity
  8
DETAIL
  6
CONTINUOUS
100
AcDbLine
 10
-349.6669490491938
 20
-168.88889996281
 30
0.0
 11
-350.1454386088289
 21
-168.88889996281
 31
0.0
  0
LINE
  5
195BE
330
1E
100
AcDbEntity
  8
DETAIL
  6
CONTINUOUS
100
AcDbLine
 10
-349.6669490491938
 20
-168.88889996281
 30
0.0
 11
-350.1454386088289
 21
-168.88889996281
 31
0.0
  0
LINE
  5
195BF
330
1E
100
AcDbEntity
  8
DETAIL
  6
CONTINUOUS
100
AcDbLine
 10
-349.1564057436799
 20
-171.9823431345306
 30
0.0
 11
-349.1564057436799
 21
-171.5413073017137
 31
0.0
  0
ARC
  5
195C0
330
1E
100
AcDbEntity
  8
DETAIL
  6
CONTINUOUS
100
AcDbCircle
 10
-347.9684798541629
 20
-166.175477011878
 30
0.0
 40
3.581460420831991
100
AcDbArc
 50
92.33106579370632
 51
122.1109753310676
  0
ARC
  5
195C1
330
1E
100
AcDbEntity
  8
DETAIL
  6
CONTINUOUS
100
AcDbCircle
 10
-350.1871851889908
 20
-171.0794649380044
 30
0.0
 40
0.4627000366823176
100
AcDbArc
 50
183.5622177582161
 51
273.4911872440024
  0
LINE
  5
195C2
330
1E
100
AcDbEntity
  8
DETAIL
  6
CONTINUOUS
100
AcDbLine
 10
-350.6489912508177
 20
-169.4055662251606
 30
0.0
 11
-350.6489912508177
 21
-171.108213593727
 31
0.0
  0
LINE
  5
195C3
330
1E
100
AcDbEntity
  8
DETAIL
  6
CONTINUOUS
100
AcDbLine
 10
-350.6393720757796
 20
-169.3140361259946
 30
0.0
 11
-350.6489912508177
 21
-169.4055662251606
 31
0.0
  0
ARC
  5
195C4
330
1E
100
AcDbEntity
  8
DETAIL
  6
CONTINUOUS
100
AcDbCircle
 10
-350.1454386088289
 20
-169.3883999628085
 30
0.0
 40
0.4994999999987614
100
AcDbArc
 50
90.0
 51
171.4381733824064
  0
LINE
  5
195C5
330
1E
100
AcDbEntity
  8
DETAIL
  6
CONTINUOUS
100
AcDbLine
 10
-350.1590090637336
 20
-171.5413062851279
 30
0.0
 11
-349.1517231285333
 21
-171.5413073064618
 31
0.0
  0
LINE
  5
195C6
330
1E
100
AcDbEntity
  8
DETAIL
  6
CONTINUOUS
100
AcDbLine
 10
-349.666949049194
 20
-168.88889996281
 30
0.0
 11
-349.8722439666461
 21
-163.1419079999689
 31
0.0
  0
LINE
  5
195C7
330
1E
100
AcDbEntity
  8
DETAIL
  6
CONTINUOUS
100
AcDbLine
 10
-349.666949049194
 20
-168.88889996281
 30
0.0
 11
-349.8722439666461
 21
-163.1419079999689
 31
0.0
  0
LINE
  5
195C8
330
1E
100
AcDbEntity
  8
DETAIL
  6
CONTINUOUS
100
AcDbLine
 10
-339.1604999999954
 20
-148.2587774086127
 30
0.0
 11
-339.1604999999953
 21
-162.0912898929533
 31
0.0
  0
LINE
  5
195C9
330
1E
100
AcDbEntity
  8
DETAIL
  6
CONTINUOUS
100
AcDbLine
 10
-339.6512825229792
 20
-172.7716495831795
 30
0.0
 11
-339.6600065873308
 21
-143.5260623422013
 31
0.0
  0
LINE
  5
195CA
330
1E
100
AcDbEntity
  8
DETAIL
  6
CONTINUOUS
100
AcDbLine
 10
-332.1726509872961
 20
-171.9823431345309
 30
0.0
 11
-331.1625942563176
 21
-171.9823431345306
 31
0.0
  0
LINE
  5
195CB
330
1E
100
AcDbEntity
  8
DETAIL
  6
CONTINUOUS
100
AcDbLine
 10
-330.6520509507908
 20
-168.88889996281
 30
0.0
 11
-330.1735613911686
 21
-168.88889996281
 31
0.0
  0
LINE
  5
195CC
330
1E
100
AcDbEntity
  8
DETAIL
  6
CONTINUOUS
100
AcDbLine
 10
-330.6520509507908
 20
-168.88889996281
 30
0.0
 11
-330.1735613911686
 21
-168.88889996281
 31
0.0
  0
ARC
  5
195CD
330
1E
100
AcDbEntity
  8
DETAIL
  6
CONTINUOUS
100
AcDbCircle
 10
-332.6684131979973
 20
-167.2010913542751
 30
0.0
 40
4.627389119255126
100
AcDbArc
 50
61.30739406424525
 51
84.25056471303333
  0
ARC
  5
195CE
330
1E
100
AcDbEntity
  8
DETAIL
  6
CONTINUOUS
100
AcDbCircle
 10
-335.5504360711173
 20
-171.9006462581518
 30
0.0
 40
3.378772921061041
100
AcDbArc
 50
312.0677427595781
 51
358.6144844428809
  0
ARC
  5
195CF
330
1E
100
AcDbEntity
  8
DETAIL
  6
CONTINUOUS
100
AcDbCircle
 10
-330.1318148567796
 20
-171.0794648862114
 30
0.0
 40
0.4627000855988304
100
AcDbArc
 50
266.508818804114
 51
356.4377761929571
  0
ARC
  5
195D0
330
1E
100
AcDbEntity
  8
DETAIL
  6
CONTINUOUS
100
AcDbCircle
 10
-330.1869246517171
 20
-169.405643109343
 30
0.0
 40
0.5169159082676897
100
AcDbArc
 50
0.0085219646151027
 51
88.51862995785579
  0
LINE
  5
195D1
330
1E
100
AcDbEntity
  8
DETAIL
  6
CONTINUOUS
100
AcDbLine
 10
-331.1636072752035
 20
-171.8869311448746
 30
0.0
 11
-331.1625942563176
 21
-171.9823431345306
 31
0.0
  0
LINE
  5
195D2
330
1E
100
AcDbEntity
  8
DETAIL
  6
CONTINUOUS
100
AcDbLine
 10
-331.1672767201297
 20
-171.541321518647
 30
0.0
 11
-331.1636072752035
 21
-171.8869311448746
 31
0.0
  0
LINE
  5
195D3
330
1E
100
AcDbEntity
  8
DETAIL
  6
CONTINUOUS
100
AcDbLine
 10
-330.1599909362621
 20
-171.5413062851333
 30
0.0
 11
-331.1672767201297
 21
-171.541321518647
 31
0.0
  0
LINE
  5
195D4
330
1E
100
AcDbEntity
  8
DETAIL
  6
CONTINUOUS
100
AcDbLine
 10
-338.6696748915701
 20
-162.3094865182578
 30
0.0
 11
-338.8256704647474
 21
-170.7164447703989
 31
0.0
  0
ARC
  5
195D5
330
1E
100
AcDbEntity
  8
DETAIL
  6
CONTINUOUS
100
AcDbCircle
 10
-336.9531516542802
 20
-170.6488013649058
 30
0.0
 40
1.873740197001145
100
AcDbArc
 50
182.0688695259963
 51
203.6350989826336
  0
LINE
  5
195D6
330
1E
100
AcDbEntity
  8
DETAIL
  6
CONTINUOUS
100
AcDbLine
 10
-329.6700087491671
 20
-169.4055662251625
 30
0.0
 11
-329.6700087491671
 21
-171.108213593727
 31
0.0
  0
LINE
  5
195D7
330
1E
100
AcDbEntity
  8
DETAIL
  6
CONTINUOUS
100
AcDbLine
 10
-337.3954552361237
 20
-162.5969802897641
 30
0.0
 11
-332.2048494303843
 21
-162.5969802897641
 31
0.0
  0
LINE
  5
195D8
330
1E
100
AcDbEntity
  8
DETAIL
  6
CONTINUOUS
100
AcDbLine
 10
-330.6520509507908
 20
-168.88889996281
 30
0.0
 11
-330.4467560333387
 21
-163.1419079999703
 31
0.0
  0
LINE
  5
195D9
330
1E
100
AcDbEntity
  8
DETAIL
  6
CONTINUOUS
100
AcDbLine
 10
-329.6700087491671
 20
-169.4055662251625
 30
0.0
 11
-329.6700087491671
 21
-171.108213593727
 31
0.0
  0
LINE
  5
195DA
330
1E
100
AcDbEntity
  8
DETAIL
  6
CONTINUOUS
100
AcDbLine
 10
-336.9916916390128
 20
-162.5969802897641
 30
0.0
 11
-332.2048494303843
 21
-162.5969802897641
 31
0.0
  0
LINE
  5
195DB
330
1E
100
AcDbEntity
  8
DETAIL
  6
CONTINUOUS
100
AcDbLine
 10
-330.6520509507908
 20
-168.88889996281
 30
0.0
 11
-330.4467560333387
 21
-163.1419079999703
 31
0.0
  0
LINE
  5
195DC
330
1E
100
AcDbEntity
  8
DETAIL
  6
CONTINUOUS
100
AcDbLine
 10
-338.6698177762618
 20
-172.0264384343803
 30
0.0
 11
-338.6697174770078
 21
-171.4000031368063
 31
0.0
  0
ARC
  5
195DD
330
1E
100
AcDbEntity
  8
DETAIL
  6
CONTINUOUS
100
AcDbCircle
 10
-339.5887360142705
 20
-171.5814090499559
 30
0.0
 40
0.4411333751892939
100
AcDbArc
 50
261.8487961061412
 51
346.1111293280362
  0
ARC
  5
195DE
330
1E
100
AcDbEntity
  8
DETAIL
  6
CONTINUOUS
100
AcDbCircle
 10
-339.0429087771162
 20
-165.0140250982289
 30
0.0
 40
2.92509978904237
100
AcDbArc
 50
275.2765866849069
 51
92.30395450675452
  0
ARC
  5
195DF
330
1E
100
AcDbEntity
  8
DETAIL
  6
CONTINUOUS
100
AcDbCircle
 10
-338.7175107568646
 20
-171.5709026694065
 30
0.0
 40
0.4580256036283231
100
AcDbArc
 50
194.7217501057241
 51
275.9768903239495
  0
ARC
  5
195E0
330
1E
100
AcDbEntity
  8
DETAIL
  6
CONTINUOUS
100
AcDbCircle
 10
-339.5620838536368
 20
-171.8702124477553
 30
0.0
 40
0.9058395618070807
100
AcDbArc
 50
264.3488857532338
 51
350.0688060595861
  0
LINE
  5
195E1
330
1E
100
AcDbEntity
  8
DETAIL
  6
CONTINUOUS
100
AcDbLine
 10
-341.1584999999894
 20
-148.2587774086127
 30
0.0
 11
-341.1584999999885
 21
-162.0633585639041
 31
0.0
  0
LINE
  5
195E2
330
1E
100
AcDbEntity
  8
DETAIL
  6
CONTINUOUS
100
AcDbLine
 10
-340.6677174770147
 20
-172.7716495831795
 30
0.0
 11
-340.6589934126594
 21
-143.5260623241881
 31
0.0
  0
ARC
  5
195E3
330
1E
100
AcDbEntity
  8
DETAIL
  6
CONTINUOUS
100
AcDbCircle
 10
-341.2561115206143
 20
-165.0067951763351
 30
0.0
 40
2.945054685461506
100
AcDbArc
 50
88.10062859974328
 51
264.3727778097368
  0
LINE
  5
195E4
330
1E
100
AcDbEntity
  8
DETAIL
  6
CONTINUOUS
100
AcDbLine
 10
-341.6493237190143
 20
-162.309484383841
 30
0.0
 11
-341.4933296703175
 21
-170.7164450624908
 31
0.0
  0
ARC
  5
195E5
330
1E
100
AcDbEntity
  8
DETAIL
  6
CONTINUOUS
100
AcDbCircle
 10
-341.6014896044353
 20
-171.5709058305918
 30
0.0
 40
0.4580258955822921
100
AcDbArc
 50
264.0231618623662
 51
345.2782887542624
  0
ARC
  5
195E6
330
1E
100
AcDbEntity
  8
DETAIL
  6
CONTINUOUS
100
AcDbCircle
 10
-340.7302098878435
 20
-171.581370390339
 30
0.0
 40
0.4411958765896994
100
AcDbArc
 50
193.8924280315769
 51
278.1724350940846
  0
ARC
  5
195E7
330
1E
100
AcDbEntity
  8
DETAIL
  6
CONTINUOUS
100
AcDbCircle
 10
-343.3658448455688
 20
-170.6488025045821
 30
0.0
 40
1.873736533556753
100
AcDbArc
 50
336.3648900348446
 51
357.9311523667779
  0
ARC
  5
195E8
330
1E
100
AcDbEntity
  8
DETAIL
  6
CONTINUOUS
100
AcDbCircle
 10
-340.7569155542505
 20
-171.8702109630179
 30
0.0
 40
0.9058409810246523
100
AcDbArc
 50
189.9314979901563
 51
275.6510677296061
  0
LINE
  5
195E9
330
1E
100
AcDbEntity
  8
DETAIL
  6
CONTINUOUS
100
AcDbLine
 10
-341.6491822005255
 20
-172.0264419293838
 30
0.0
 11
-341.6492825229788
 21
-171.4000031368031
 31
0.0
  0
LINE
  5
195EA
330
1E
100
AcDbEntity
  8
DETAIL
  6
CONTINUOUS
100
AcDbLine
 10
-340.6677174770038
 20
-172.7716495831798
 30
0.0
 11
-339.6512825229792
 21
-172.7716495831798
 31
0.0
  0
LINE
  5
195EB
330
1E
100
AcDbEntity
  8
DETAIL
  6
CONTINUOUS
100
AcDbLine
 10
-339.6515073135006
 20
-172.0180867301636
 30
0.0
 11
-340.6677174770147
 21
-172.0180858056394
 31
0.0
  0
LINE
  5
195EC
330
1E
100
AcDbEntity
  8
DETAIL
  6
CONTINUOUS
100
AcDbLine
 10
-347.0671796912711
 20
-174.3644430563785
 30
0.0
 11
-333.2866285348562
 21
-174.408889047609
 31
0.0
  0
ARC
  5
195EE
330
1E
100
AcDbEntity
  8
DETAIL
  6
CONTINUOUS
100
AcDbCircle
 10
-258.395759307822
 20
-145.2418085465594
 30
0.0
 40
9.33756323541516
100
AcDbArc
 50
181.1508954655483
 51
198.8505178721118
  0
ARC
  5
195EF
330
1E
100
AcDbEntity
  8
DETAIL
  6
CONTINUOUS
100
AcDbCircle
 10
-278.033767762642
 20
-145.250313435041
 30
0.0
 40
9.303138114700622
100
AcDbArc
 50
341.1324446327767
 51
359.4887518888008
  0
ARC
  5
195F0
330
1E
100
AcDbEntity
  8
DETAIL
  6
CONTINUOUS
100
AcDbCircle
 10
-313.9977677626402
 20
-145.250313435041
 30
0.0
 40
9.303138114700622
100
AcDbArc
 50
341.1324446327767
 51
359.4887518888008
  0
ARC
  5
195F1
330
1E
100
AcDbEntity
  8
DETAIL
  6
CONTINUOUS
100
AcDbCircle
 10
-294.3597593078201
 20
-145.2418085465594
 30
0.0
 40
9.33756323541516
100
AcDbArc
 50
181.1508954655483
 51
198.8505178721118
  0
LINE
  5
195F2
330
1E
100
AcDbEntity
  8
DETAIL
  6
CONTINUOUS
100
AcDbLine
 10
-303.1964999999971
 20
-148.2587774086127
 30
0.0
 11
-303.1964999999971
 21
-162.0912898929533
 31
0.0
  0
LINE
  5
195F3
330
1E
100
AcDbEntity
  8
DETAIL
  6
CONTINUOUS
100
AcDbLine
 10
-303.687282522981
 20
-172.7716495831795
 30
0.0
 11
-303.6960065873326
 21
-143.5260623422013
 31
0.0
  0
LINE
  5
195F4
330
1E
100
AcDbEntity
  8
DETAIL
  6
CONTINUOUS
100
AcDbLine
 10
-305.1944999999913
 20
-148.2587774086127
 30
0.0
 11
-305.1944999999903
 21
-162.0633585639041
 31
0.0
  0
LINE
  5
195F5
330
1E
100
AcDbEntity
  8
DETAIL
  6
CONTINUOUS
100
AcDbLine
 10
-304.7037174770166
 20
-172.7716495831795
 30
0.0
 11
-304.6949934126613
 21
-143.5260623241881
 31
0.0
  0
ARC
  5
195F6
330
1E
100
AcDbEntity
  8
DETAIL
  6
CONTINUOUS
100
AcDbCircle
 10
-309.0888719044986
 20
-172.0530150855096
 30
0.0
 40
3.065963979627565
100
AcDbArc
 50
178.6791876201162
 51
228.9292821428444
  0
LINE
  5
195F7
330
1E
100
AcDbEntity
  8
DETAIL
  6
CONTINUOUS
100
AcDbLine
 10
-312.1501505645746
 20
-162.5969802897641
 30
0.0
 11
-306.9833851204794
 21
-162.5957910886639
 31
0.0
  0
LINE
  5
195F8
330
1E
100
AcDbEntity
  8
DETAIL
  6
CONTINUOUS
100
AcDbLine
 10
-312.1501505645746
 20
-162.5969802897641
 30
0.0
 11
-307.3633454730706
 21
-162.5958785416891
 31
0.0
  0
LINE
  5
195F9
330
1E
100
AcDbEntity
  8
DETAIL
  6
CONTINUOUS
100
AcDbLine
 10
-313.1924057436816
 20
-171.9823431345306
 30
0.0
 11
-312.1540212645982
 21
-171.9823431345306
 31
0.0
  0
LINE
  5
195FA
330
1E
100
AcDbEntity
  8
DETAIL
  6
CONTINUOUS
100
AcDbLine
 10
-313.1924057436816
 20
-171.9823431345306
 30
0.0
 11
-312.1540212645982
 21
-171.9823431345306
 31
0.0
  0
LINE
  5
195FB
330
1E
100
AcDbEntity
  8
DETAIL
  6
CONTINUOUS
100
AcDbLine
 10
-313.7029490491958
 20
-168.88889996281
 30
0.0
 11
-314.1814386088307
 21
-168.88889996281
 31
0.0
  0
LINE
  5
195FC
330
1E
100
AcDbEntity
  8
DETAIL
  6
CONTINUOUS
100
AcDbLine
 10
-313.7029490491958
 20
-168.88889996281
 30
0.0
 11
-314.1814386088307
 21
-168.88889996281
 31
0.0
  0
LINE
  5
195FD
330
1E
100
AcDbEntity
  8
DETAIL
  6
CONTINUOUS
100
AcDbLine
 10
-313.1924057436816
 20
-171.9823431345306
 30
0.0
 11
-313.1924057436816
 21
-171.5413073017137
 31
0.0
  0
ARC
  5
195FE
330
1E
100
AcDbEntity
  8
DETAIL
  6
CONTINUOUS
100
AcDbCircle
 10
-312.0044798541647
 20
-166.175477011878
 30
0.0
 40
3.581460420831991
100
AcDbArc
 50
92.33106579370632
 51
122.1109753310676
  0
ARC
  5
195FF
330
1E
100
AcDbEntity
  8
DETAIL
  6
CONTINUOUS
100
AcDbCircle
 10
-314.2231851889928
 20
-171.0794649380044
 30
0.0
 40
0.4627000366823176
100
AcDbArc
 50
183.5622177582161
 51
273.4911872440024
  0
LINE
  5
19600
330
1E
100
AcDbEntity
  8
DETAIL
  6
CONTINUOUS
100
AcDbLine
 10
-314.6849912508196
 20
-169.4055662251606
 30
0.0
 11
-314.6849912508196
 21
-171.108213593727
 31
0.0
  0
LINE
  5
19601
330
1E
100
AcDbEntity
  8
DETAIL
  6
CONTINUOUS
100
AcDbLine
 10
-314.6753720757815
 20
-169.3140361259946
 30
0.0
 11
-314.6849912508196
 21
-169.4055662251606
 31
0.0
  0
ARC
  5
19602
330
1E
100
AcDbEntity
  8
DETAIL
  6
CONTINUOUS
100
AcDbCircle
 10
-314.1814386088307
 20
-169.3883999628085
 30
0.0
 40
0.4994999999987614
100
AcDbArc
 50
90.0
 51
171.4381733824064
  0
LINE
  5
19603
330
1E
100
AcDbEntity
  8
DETAIL
  6
CONTINUOUS
100
AcDbLine
 10
-314.1950090637354
 20
-171.5413062851279
 30
0.0
 11
-313.1877231285352
 21
-171.5413073064618
 31
0.0
  0
LINE
  5
19604
330
1E
100
AcDbEntity
  8
DETAIL
  6
CONTINUOUS
100
AcDbLine
 10
-313.7029490491958
 20
-168.88889996281
 30
0.0
 11
-313.9082439666481
 21
-163.1419079999689
 31
0.0
  0
LINE
  5
19605
330
1E
100
AcDbEntity
  8
DETAIL
  6
CONTINUOUS
100
AcDbLine
 10
-313.7029490491958
 20
-168.88889996281
 30
0.0
 11
-313.9082439666481
 21
-163.1419079999689
 31
0.0
  0
LINE
  5
19606
330
1E
100
AcDbEntity
  8
DETAIL
  6
CONTINUOUS
100
AcDbLine
 10
-296.208650987298
 20
-171.9823431345309
 30
0.0
 11
-295.1985942563196
 21
-171.9823431345306
 31
0.0
  0
LINE
  5
19607
330
1E
100
AcDbEntity
  8
DETAIL
  6
CONTINUOUS
100
AcDbLine
 10
-294.6880509507926
 20
-168.88889996281
 30
0.0
 11
-294.2095613911705
 21
-168.88889996281
 31
0.0
  0
LINE
  5
19608
330
1E
100
AcDbEntity
  8
DETAIL
  6
CONTINUOUS
100
AcDbLine
 10
-294.6880509507926
 20
-168.88889996281
 30
0.0
 11
-294.2095613911705
 21
-168.88889996281
 31
0.0
  0
ARC
  5
19609
330
1E
100
AcDbEntity
  8
DETAIL
  6
CONTINUOUS
100
AcDbCircle
 10
-296.7044131979992
 20
-167.2010913542751
 30
0.0
 40
4.627389119255126
100
AcDbArc
 50
61.30739406424525
 51
84.25056471303333
  0
ARC
  5
1960A
330
1E
100
AcDbEntity
  8
DETAIL
  6
CONTINUOUS
100
AcDbCircle
 10
-299.5864360711193
 20
-171.9006462581518
 30
0.0
 40
3.378772921061041
100
AcDbArc
 50
312.0677427595781
 51
358.6144844428809
  0
ARC
  5
1960B
330
1E
100
AcDbEntity
  8
DETAIL
  6
CONTINUOUS
100
AcDbCircle
 10
-294.1678148567816
 20
-171.0794648862114
 30
0.0
 40
0.4627000855988304
100
AcDbArc
 50
266.508818804114
 51
356.4377761929571
  0
ARC
  5
1960C
330
1E
100
AcDbEntity
  8
DETAIL
  6
CONTINUOUS
100
AcDbCircle
 10
-294.222924651719
 20
-169.405643109343
 30
0.0
 40
0.5169159082676897
100
AcDbArc
 50
0.0085219646151027
 51
88.51862995785579
  0
LINE
  5
1960D
330
1E
100
AcDbEntity
  8
DETAIL
  6
CONTINUOUS
100
AcDbLine
 10
-295.1996072752054
 20
-171.8869311448746
 30
0.0
 11
-295.1985942563196
 21
-171.9823431345306
 31
0.0
  0
LINE
  5
1960E
330
1E
100
AcDbEntity
  8
DETAIL
  6
CONTINUOUS
100
AcDbLine
 10
-295.2032767201316
 20
-171.541321518647
 30
0.0
 11
-295.1996072752054
 21
-171.8869311448746
 31
0.0
  0
LINE
  5
1960F
330
1E
100
AcDbEntity
  8
DETAIL
  6
CONTINUOUS
100
AcDbLine
 10
-294.195990936264
 20
-171.5413062851333
 30
0.0
 11
-295.2032767201316
 21
-171.541321518647
 31
0.0
  0
LINE
  5
19610
330
1E
100
AcDbEntity
  8
DETAIL
  6
CONTINUOUS
100
AcDbLine
 10
-302.705674891572
 20
-162.3094865182578
 30
0.0
 11
-302.8616704647493
 21
-170.7164447703989
 31
0.0
  0
ARC
  5
19611
330
1E
100
AcDbEntity
  8
DETAIL
  6
CONTINUOUS
100
AcDbCircle
 10
-300.989151654282
 20
-170.6488013649058
 30
0.0
 40
1.873740197001145
100
AcDbArc
 50
182.0688695259963
 51
203.6350989826336
  0
LINE
  5
19612
330
1E
100
AcDbEntity
  8
DETAIL
  6
CONTINUOUS
100
AcDbLine
 10
-293.7060087491691
 20
-169.4055662251625
 30
0.0
 11
-293.7060087491691
 21
-171.108213593727
 31
0.0
  0
LINE
  5
19613
330
1E
100
AcDbEntity
  8
DETAIL
  6
CONTINUOUS
100
AcDbLine
 10
-301.4314552361256
 20
-162.5969802897641
 30
0.0
 11
-296.2408494303863
 21
-162.5969802897641
 31
0.0
  0
LINE
  5
19614
330
1E
100
AcDbEntity
  8
DETAIL
  6
CONTINUOUS
100
AcDbLine
 10
-294.6880509507926
 20
-168.88889996281
 30
0.0
 11
-294.4827560333406
 21
-163.1419079999703
 31
0.0
  0
LINE
  5
19615
330
1E
100
AcDbEntity
  8
DETAIL
  6
CONTINUOUS
100
AcDbLine
 10
-293.7060087491691
 20
-169.4055662251625
 30
0.0
 11
-293.7060087491691
 21
-171.108213593727
 31
0.0
  0
LINE
  5
19616
330
1E
100
AcDbEntity
  8
DETAIL
  6
CONTINUOUS
100
AcDbLine
 10
-301.0276916390147
 20
-162.5969802897641
 30
0.0
 11
-296.2408494303863
 21
-162.5969802897641
 31
0.0
  0
LINE
  5
19617
330
1E
100
AcDbEntity
  8
DETAIL
  6
CONTINUOUS
100
AcDbLine
 10
-294.6880509507926
 20
-168.88889996281
 30
0.0
 11
-294.4827560333406
 21
-163.1419079999703
 31
0.0
  0
LINE
  5
19618
330
1E
100
AcDbEntity
  8
DETAIL
  6
CONTINUOUS
100
AcDbLine
 10
-302.7058177762636
 20
-172.0264384343803
 30
0.0
 11
-302.7057174770098
 21
-171.4000031368063
 31
0.0
  0
ARC
  5
19619
330
1E
100
AcDbEntity
  8
DETAIL
  6
CONTINUOUS
100
AcDbCircle
 10
-303.6247360142724
 20
-171.5814090499559
 30
0.0
 40
0.4411333751892939
100
AcDbArc
 50
261.8487961061412
 51
346.1111293280362
  0
ARC
  5
1961A
330
1E
100
AcDbEntity
  8
DETAIL
  6
CONTINUOUS
100
AcDbCircle
 10
-303.078908777118
 20
-165.0140250982289
 30
0.0
 40
2.92509978904237
100
AcDbArc
 50
275.2765866849069
 51
92.30395450675452
  0
ARC
  5
1961B
330
1E
100
AcDbEntity
  8
DETAIL
  6
CONTINUOUS
100
AcDbCircle
 10
-302.7535107568663
 20
-171.5709026694065
 30
0.0
 40
0.4580256036283231
100
AcDbArc
 50
194.7217501057241
 51
275.9768903239495
  0
ARC
  5
1961C
330
1E
100
AcDbEntity
  8
DETAIL
  6
CONTINUOUS
100
AcDbCircle
 10
-303.5980838536388
 20
-171.8702124477553
 30
0.0
 40
0.9058395618070807
100
AcDbArc
 50
264.3488857532338
 51
350.0688060595861
  0
ARC
  5
1961D
330
1E
100
AcDbEntity
  8
DETAIL
  6
CONTINUOUS
100
AcDbCircle
 10
-305.2921115206162
 20
-165.0067951763351
 30
0.0
 40
2.945054685461506
100
AcDbArc
 50
88.10062859974328
 51
264.3727778097368
  0
LINE
  5
1961E
330
1E
100
AcDbEntity
  8
DETAIL
  6
CONTINUOUS
100
AcDbLine
 10
-305.6853237190161
 20
-162.309484383841
 30
0.0
 11
-305.5293296703193
 21
-170.7164450624908
 31
0.0
  0
ARC
  5
1961F
330
1E
100
AcDbEntity
  8
DETAIL
  6
CONTINUOUS
100
AcDbCircle
 10
-305.6374896044371
 20
-171.5709058305918
 30
0.0
 40
0.4580258955822921
100
AcDbArc
 50
264.0231618623662
 51
345.2782887542624
  0
ARC
  5
19620
330
1E
100
AcDbEntity
  8
DETAIL
  6
CONTINUOUS
100
AcDbCircle
 10
-304.7662098878453
 20
-171.581370390339
 30
0.0
 40
0.4411958765896994
100
AcDbArc
 50
193.8924280315769
 51
278.1724350940846
  0
ARC
  5
19621
330
1E
100
AcDbEntity
  8
DETAIL
  6
CONTINUOUS
100
AcDbCircle
 10
-307.4018448455708
 20
-170.6488025045821
 30
0.0
 40
1.873736533556753
100
AcDbArc
 50
336.3648900348446
 51
357.9311523667779
  0
ARC
  5
19622
330
1E
100
AcDbEntity
  8
DETAIL
  6
CONTINUOUS
100
AcDbCircle
 10
-304.7929155542523
 20
-171.8702109630179
 30
0.0
 40
0.9058409810246523
100
AcDbArc
 50
189.9314979901563
 51
275.6510677296061
  0
LINE
  5
19623
330
1E
100
AcDbEntity
  8
DETAIL
  6
CONTINUOUS
100
AcDbLine
 10
-305.6851822005274
 20
-172.0264419293838
 30
0.0
 11
-305.6852825229806
 21
-171.4000031368031
 31
0.0
  0
LINE
  5
19624
330
1E
100
AcDbEntity
  8
DETAIL
  6
CONTINUOUS
100
AcDbLine
 10
-304.7037174770057
 20
-172.7716495831798
 30
0.0
 11
-303.687282522981
 21
-172.7716495831798
 31
0.0
  0
LINE
  5
19625
330
1E
100
AcDbEntity
  8
DETAIL
  6
CONTINUOUS
100
AcDbLine
 10
-303.6875073135024
 20
-172.0180867301636
 30
0.0
 11
-304.7037174770166
 21
-172.0180858056394
 31
0.0
  0
LINE
  5
19626
330
1E
100
AcDbEntity
  8
DETAIL
  6
CONTINUOUS
100
AcDbLine
 10
-311.103179691273
 20
-174.3644430563785
 30
0.0
 11
-297.3226285348581
 21
-174.408889047609
 31
0.0
  0
ARC
  5
19627
330
1E
100
AcDbEntity
  8
DETAIL
  6
CONTINUOUS
100
AcDbCircle
 10
-330.3237593078183
 20
-145.2418085465594
 30
0.0
 40
9.33756323541516
100
AcDbArc
 50
181.1508954655483
 51
198.8505178721118
  0
ARC
  5
19628
330
1E
100
AcDbEntity
  8
DETAIL
  6
CONTINUOUS
100
AcDbCircle
 10
-349.9617677626383
 20
-145.250313435041
 30
0.0
 40
9.303138114700622
100
AcDbArc
 50
341.1324446327767
 51
359.4887518888008
  0
LINE
  5
1962A
330
1E
100
AcDbEntity
  8
DETAIL
  6
CONTINUOUS
100
AcDbLine
 10
-368.1366509873051
 20
-171.9823431345309
 30
0.0
 11
-367.1265942563268
 21
-171.9823431345306
 31
0.0
  0
LINE
  5
1962B
330
1E
100
AcDbEntity
  8
DETAIL
  6
CONTINUOUS
100
AcDbLine
 10
-366.6160509507997
 20
-168.88889996281
 30
0.0
 11
-366.1375613911776
 21
-168.88889996281
 31
0.0
  0
LINE
  5
1962C
330
1E
100
AcDbEntity
  8
DETAIL
  6
CONTINUOUS
100
AcDbLine
 10
-366.6160509507997
 20
-168.88889996281
 30
0.0
 11
-366.1375613911776
 21
-168.88889996281
 31
0.0
  0
ARC
  5
1962D
330
1E
100
AcDbEntity
  8
DETAIL
  6
CONTINUOUS
100
AcDbCircle
 10
-368.6324131980063
 20
-167.2010913542751
 30
0.0
 40
4.627389119255126
100
AcDbArc
 50
61.30739406424525
 51
84.25056471303333
  0
ARC
  5
1962E
330
1E
100
AcDbEntity
  8
DETAIL
  6
CONTINUOUS
100
AcDbCircle
 10
-371.5144360711264
 20
-171.9006462581518
 30
0.0
 40
3.378772921061041
100
AcDbArc
 50
312.0677427595781
 51
358.6144844428809
  0
ARC
  5
1962F
330
1E
100
AcDbEntity
  8
DETAIL
  6
CONTINUOUS
100
AcDbCircle
 10
-366.0958148567887
 20
-171.0794648862114
 30
0.0
 40
0.4627000855988304
100
AcDbArc
 50
266.508818804114
 51
356.4377761929571
  0
ARC
  5
19630
330
1E
100
AcDbEntity
  8
DETAIL
  6
CONTINUOUS
100
AcDbCircle
 10
-366.1509246517261
 20
-169.405643109343
 30
0.0
 40
0.5169159082676897
100
AcDbArc
 50
0.0085219646151027
 51
88.51862995785579
  0
LINE
  5
19631
330
1E
100
AcDbEntity
  8
DETAIL
  6
CONTINUOUS
100
AcDbLine
 10
-367.1276072752124
 20
-171.8869311448746
 30
0.0
 11
-367.1265942563268
 21
-171.9823431345306
 31
0.0
  0
LINE
  5
19632
330
1E
100
AcDbEntity
  8
DETAIL
  6
CONTINUOUS
100
AcDbLine
 10
-367.1312767201387
 20
-171.541321518647
 30
0.0
 11
-367.1276072752124
 21
-171.8869311448746
 31
0.0
  0
LINE
  5
19633
330
1E
100
AcDbEntity
  8
DETAIL
  6
CONTINUOUS
100
AcDbLine
 10
-366.1239909362711
 20
-171.5413062851333
 30
0.0
 11
-367.1312767201387
 21
-171.541321518647
 31
0.0
  0
LINE
  5
19634
330
1E
100
AcDbEntity
  8
DETAIL
  6
CONTINUOUS
100
AcDbLine
 10
-365.6340087491761
 20
-169.4055662251625
 30
0.0
 11
-365.6340087491761
 21
-171.108213593727
 31
0.0
  0
LINE
  5
19635
330
1E
100
AcDbEntity
  8
DETAIL
  6
CONTINUOUS
100
AcDbLine
 10
-366.6160509507998
 20
-168.88889996281
 30
0.0
 11
-366.4107560333476
 21
-163.1419079999703
 31
0.0
  0
LINE
  5
19636
330
1E
100
AcDbEntity
  8
DETAIL
  6
CONTINUOUS
100
AcDbLine
 10
-365.6340087491761
 20
-169.4055662251625
 30
0.0
 11
-365.6340087491761
 21
-171.108213593727
 31
0.0
  0
LINE
  5
19637
330
1E
100
AcDbEntity
  8
DETAIL
  6
CONTINUOUS
100
AcDbLine
 10
-366.6160509507998
 20
-168.88889996281
 30
0.0
 11
-366.4107560333476
 21
-163.1419079999703
 31
0.0
  0
ARC
  5
19638
330
1E
100
AcDbEntity
  8
DETAIL
  6
CONTINUOUS
100
AcDbCircle
 10
-381.0168719045058
 20
-172.0530150855096
 30
0.0
 40
3.065963979627565
100
AcDbArc
 50
178.6791876201162
 51
228.9292821428444
  0
LINE
  5
19639
330
1E
100
AcDbEntity
  8
DETAIL
  6
CONTINUOUS
100
AcDbLine
 10
-384.0781505645818
 20
-162.5969802897641
 30
0.0
 11
-378.9113851204865
 21
-162.5957910886639
 31
0.0
  0
LINE
  5
1963A
330
1E
100
AcDbEntity
  8
DETAIL
  6
CONTINUOUS
100
AcDbLine
 10
-384.0781505645818
 20
-162.5969802897641
 30
0.0
 11
-379.2913454730778
 21
-162.5958785416891
 31
0.0
  0
LINE
  5
1963B
330
1E
100
AcDbEntity
  8
DETAIL
  6
CONTINUOUS
100
AcDbLine
 10
-385.1204057436888
 20
-171.9823431345306
 30
0.0
 11
-384.0820212646054
 21
-171.9823431345306
 31
0.0
  0
LINE
  5
1963C
330
1E
100
AcDbEntity
  8
DETAIL
  6
CONTINUOUS
100
AcDbLine
 10
-385.1204057436888
 20
-171.9823431345306
 30
0.0
 11
-384.0820212646054
 21
-171.9823431345306
 31
0.0
  0
LINE
  5
1963D
330
1E
100
AcDbEntity
  8
DETAIL
  6
CONTINUOUS
100
AcDbLine
 10
-385.6309490492028
 20
-168.88889996281
 30
0.0
 11
-386.109438608838
 21
-168.88889996281
 31
0.0
  0
LINE
  5
1963E
330
1E
100
AcDbEntity
  8
DETAIL
  6
CONTINUOUS
100
AcDbLine
 10
-385.6309490492028
 20
-168.88889996281
 30
0.0
 11
-386.109438608838
 21
-168.88889996281
 31
0.0
  0
LINE
  5
1963F
330
1E
100
AcDbEntity
  8
DETAIL
  6
CONTINUOUS
100
AcDbLine
 10
-385.1204057436888
 20
-171.9823431345306
 30
0.0
 11
-385.1204057436888
 21
-171.5413073017137
 31
0.0
  0
ARC
  5
19640
330
1E
100
AcDbEntity
  8
DETAIL
  6
CONTINUOUS
100
AcDbCircle
 10
-383.9324798541719
 20
-166.175477011878
 30
0.0
 40
3.581460420831991
100
AcDbArc
 50
92.33106579370632
 51
122.1109753310676
  0
ARC
  5
19641
330
1E
100
AcDbEntity
  8
DETAIL
  6
CONTINUOUS
100
AcDbCircle
 10
-386.151185189
 20
-171.0794649380044
 30
0.0
 40
0.4627000366823176
100
AcDbArc
 50
183.5622177582161
 51
273.4911872440024
  0
LINE
  5
19642
330
1E
100
AcDbEntity
  8
DETAIL
  6
CONTINUOUS
100
AcDbLine
 10
-386.6129912508267
 20
-169.4055662251606
 30
0.0
 11
-386.6129912508267
 21
-171.108213593727
 31
0.0
  0
LINE
  5
19643
330
1E
100
AcDbEntity
  8
DETAIL
  6
CONTINUOUS
100
AcDbLine
 10
-386.6033720757886
 20
-169.3140361259946
 30
0.0
 11
-386.6129912508267
 21
-169.4055662251606
 31
0.0
  0
ARC
  5
19644
330
1E
100
AcDbEntity
  8
DETAIL
  6
CONTINUOUS
100
AcDbCircle
 10
-386.109438608838
 20
-169.3883999628085
 30
0.0
 40
0.4994999999987614
100
AcDbArc
 50
90.0
 51
171.4381733824064
  0
LINE
  5
19645
330
1E
100
AcDbEntity
  8
DETAIL
  6
CONTINUOUS
100
AcDbLine
 10
-386.1230090637427
 20
-171.5413062851279
 30
0.0
 11
-385.1157231285424
 21
-171.5413073064618
 31
0.0
  0
LINE
  5
19646
330
1E
100
AcDbEntity
  8
DETAIL
  6
CONTINUOUS
100
AcDbLine
 10
-385.630949049203
 20
-168.88889996281
 30
0.0
 11
-385.8362439666553
 21
-163.1419079999689
 31
0.0
  0
LINE
  5
19647
330
1E
100
AcDbEntity
  8
DETAIL
  6
CONTINUOUS
100
AcDbLine
 10
-385.630949049203
 20
-168.88889996281
 30
0.0
 11
-385.8362439666553
 21
-163.1419079999689
 31
0.0
  0
LINE
  5
19648
330
1E
100
AcDbEntity
  8
DETAIL
  6
CONTINUOUS
100
AcDbLine
 10
-375.1245000000043
 20
-148.2587774086127
 30
0.0
 11
-375.1245000000043
 21
-162.0912898929533
 31
0.0
  0
LINE
  5
19649
330
1E
100
AcDbEntity
  8
DETAIL
  6
CONTINUOUS
100
AcDbLine
 10
-375.6152825229883
 20
-172.7716495831795
 30
0.0
 11
-375.6240065873398
 21
-143.5260623422013
 31
0.0
  0
LINE
  5
1964A
330
1E
100
AcDbEntity
  8
DETAIL
  6
CONTINUOUS
100
AcDbLine
 10
-374.6336748915791
 20
-162.3094865182578
 30
0.0
 11
-374.7896704647564
 21
-170.7164447703989
 31
0.0
  0
ARC
  5
1964B
330
1E
100
AcDbEntity
  8
DETAIL
  6
CONTINUOUS
100
AcDbCircle
 10
-372.9171516542891
 20
-170.6488013649058
 30
0.0
 40
1.873740197001145
100
AcDbArc
 50
182.0688695259963
 51
203.6350989826336
  0
LINE
  5
1964C
330
1E
100
AcDbEntity
  8
DETAIL
  6
CONTINUOUS
100
AcDbLine
 10
-373.3594552361328
 20
-162.5969802897641
 30
0.0
 11
-368.1688494303934
 21
-162.5969802897641
 31
0.0
  0
LINE
  5
1964D
330
1E
100
AcDbEntity
  8
DETAIL
  6
CONTINUOUS
100
AcDbLine
 10
-372.955691639022
 20
-162.5969802897641
 30
0.0
 11
-368.1688494303934
 21
-162.5969802897641
 31
0.0
  0
LINE
  5
1964E
330
1E
100
AcDbEntity
  8
DETAIL
  6
CONTINUOUS
100
AcDbLine
 10
-374.6338177762709
 20
-172.0264384343803
 30
0.0
 11
-374.6337174770169
 21
-171.4000031368063
 31
0.0
  0
ARC
  5
1964F
330
1E
100
AcDbEntity
  8
DETAIL
  6
CONTINUOUS
100
AcDbCircle
 10
-375.5527360142796
 20
-171.5814090499559
 30
0.0
 40
0.4411333751892939
100
AcDbArc
 50
261.8487961061412
 51
346.1111293280362
  0
ARC
  5
19650
330
1E
100
AcDbEntity
  8
DETAIL
  6
CONTINUOUS
100
AcDbCircle
 10
-375.0069087771253
 20
-165.0140250982289
 30
0.0
 40
2.92509978904237
100
AcDbArc
 50
275.2765866849069
 51
92.30395450675452
  0
ARC
  5
19651
330
1E
100
AcDbEntity
  8
DETAIL
  6
CONTINUOUS
100
AcDbCircle
 10
-374.6815107568736
 20
-171.5709026694065
 30
0.0
 40
0.4580256036283231
100
AcDbArc
 50
194.7217501057241
 51
275.9768903239495
  0
ARC
  5
19652
330
1E
100
AcDbEntity
  8
DETAIL
  6
CONTINUOUS
100
AcDbCircle
 10
-375.526083853646
 20
-171.8702124477553
 30
0.0
 40
0.9058395618070807
100
AcDbArc
 50
264.3488857532338
 51
350.0688060595861
  0
LINE
  5
19653
330
1E
100
AcDbEntity
  8
DETAIL
  6
CONTINUOUS
100
AcDbLine
 10
-377.1224999999986
 20
-148.2587774086127
 30
0.0
 11
-377.1224999999974
 21
-162.0633585639041
 31
0.0
  0
LINE
  5
19654
330
1E
100
AcDbEntity
  8
DETAIL
  6
CONTINUOUS
100
AcDbLine
 10
-376.6317174770238
 20
-172.7716495831795
 30
0.0
 11
-376.6229934126686
 21
-143.5260623241881
 31
0.0
  0
ARC
  5
19655
330
1E
100
AcDbEntity
  8
DETAIL
  6
CONTINUOUS
100
AcDbCircle
 10
-377.2201115206234
 20
-165.0067951763351
 30
0.0
 40
2.945054685461506
100
AcDbArc
 50
88.10062859974328
 51
264.3727778097368
  0
LINE
  5
19656
330
1E
100
AcDbEntity
  8
DETAIL
  6
CONTINUOUS
100
AcDbLine
 10
-377.6133237190232
 20
-162.309484383841
 30
0.0
 11
-377.4573296703265
 21
-170.7164450624908
 31
0.0
  0
ARC
  5
19657
330
1E
100
AcDbEntity
  8
DETAIL
  6
CONTINUOUS
100
AcDbCircle
 10
-377.5654896044442
 20
-171.5709058305918
 30
0.0
 40
0.4580258955822921
100
AcDbArc
 50
264.0231618623662
 51
345.2782887542624
  0
ARC
  5
19658
330
1E
100
AcDbEntity
  8
DETAIL
  6
CONTINUOUS
100
AcDbCircle
 10
-376.6942098878526
 20
-171.581370390339
 30
0.0
 40
0.4411958765896994
100
AcDbArc
 50
193.8924280315769
 51
278.1724350940846
  0
ARC
  5
19659
330
1E
100
AcDbEntity
  8
DETAIL
  6
CONTINUOUS
100
AcDbCircle
 10
-379.329844845578
 20
-170.6488025045821
 30
0.0
 40
1.873736533556753
100
AcDbArc
 50
336.3648900348446
 51
357.9311523667779
  0
ARC
  5
1965A
330
1E
100
AcDbEntity
  8
DETAIL
  6
CONTINUOUS
100
AcDbCircle
 10
-376.7209155542595
 20
-171.8702109630179
 30
0.0
 40
0.9058409810246523
100
AcDbArc
 50
189.9314979901563
 51
275.6510677296061
  0
LINE
  5
1965B
330
1E
100
AcDbEntity
  8
DETAIL
  6
CONTINUOUS
100
AcDbLine
 10
-377.6131822005345
 20
-172.0264419293838
 30
0.0
 11
-377.6132825229879
 21
-171.4000031368031
 31
0.0
  0
LINE
  5
1965C
330
1E
100
AcDbEntity
  8
DETAIL
  6
CONTINUOUS
100
AcDbLine
 10
-376.6317174770128
 20
-172.7716495831798
 30
0.0
 11
-375.6152825229883
 21
-172.7716495831798
 31
0.0
  0
LINE
  5
1965D
330
1E
100
AcDbEntity
  8
DETAIL
  6
CONTINUOUS
100
AcDbLine
 10
-375.6155073135096
 20
-172.0180867301636
 30
0.0
 11
-376.6317174770238
 21
-172.0180858056394
 31
0.0
  0
LINE
  5
1965E
330
1E
100
AcDbEntity
  8
DETAIL
  6
CONTINUOUS
100
AcDbLine
 10
-383.0311796912801
 20
-174.3644430563785
 30
0.0
 11
-369.2506285348652
 21
-174.408889047609
 31
0.0
  0
ARC
  5
1965F
330
1E
100
AcDbEntity
  8
DETAIL
  6
CONTINUOUS
100
AcDbCircle
 10
-366.2877593078273
 20
-145.2418085465594
 30
0.0
 40
9.33756323541516
100
AcDbArc
 50
181.1508954655483
 51
198.8505178721118
  0
ARC
  5
19660
330
1E
100
AcDbEntity
  8
DETAIL
  6
CONTINUOUS
100
AcDbCircle
 10
-385.9257677626473
 20
-145.250313435041
 30
0.0
 40
9.303138114700622
100
AcDbArc
 50
341.1324446327767
 51
359.4887518888008
  0
LINE
  5
19661
330
1E
100
AcDbEntity
  8
DETAIL
  6
CONTINUOUS
100
AcDbLine
 10
-418.9951796912781
 20
-174.3644430563785
 30
0.0
 11
-405.2146285348634
 21
-174.408889047609
 31
0.0
  0
LINE
  5
19662
330
1E
100
AcDbEntity
  8
DETAIL
  6
CONTINUOUS
100
AcDbLine
 10
-411.5795073135076
 20
-172.0180867301636
 30
0.0
 11
-412.5957174770219
 21
-172.0180858056394
 31
0.0
  0
LINE
  5
19663
330
1E
100
AcDbEntity
  8
DETAIL
  6
CONTINUOUS
100
AcDbLine
 10
-412.595717477011
 20
-172.7716495831798
 30
0.0
 11
-411.5792825229863
 21
-172.7716495831798
 31
0.0
  0
LINE
  5
19664
330
1E
100
AcDbEntity
  8
DETAIL
  6
CONTINUOUS
100
AcDbLine
 10
-413.5771822005327
 20
-172.0264419293838
 30
0.0
 11
-413.5772825229859
 21
-171.4000031368031
 31
0.0
  0
ARC
  5
19665
330
1E
100
AcDbEntity
  8
DETAIL
  6
CONTINUOUS
100
AcDbCircle
 10
-412.6849155542577
 20
-171.8702109630179
 30
0.0
 40
0.9058409810246523
100
AcDbArc
 50
189.9314979901563
 51
275.6510677296061
  0
ARC
  5
19666
330
1E
100
AcDbEntity
  8
DETAIL
  6
CONTINUOUS
100
AcDbCircle
 10
-415.2938448455761
 20
-170.6488025045821
 30
0.0
 40
1.873736533556753
100
AcDbArc
 50
336.3648900348446
 51
357.9311523667779
  0
ARC
  5
19667
330
1E
100
AcDbEntity
  8
DETAIL
  6
CONTINUOUS
100
AcDbCircle
 10
-412.6582098878507
 20
-171.581370390339
 30
0.0
 40
0.4411958765896994
100
AcDbArc
 50
193.8924280315769
 51
278.1724350940846
  0
ARC
  5
19668
330
1E
100
AcDbEntity
  8
DETAIL
  6
CONTINUOUS
100
AcDbCircle
 10
-413.5294896044423
 20
-171.5709058305918
 30
0.0
 40
0.4580258955822921
100
AcDbArc
 50
264.0231618623662
 51
345.2782887542624
  0
LINE
  5
19669
330
1E
100
AcDbEntity
  8
DETAIL
  6
CONTINUOUS
100
AcDbLine
 10
-413.5773237190213
 20
-162.309484383841
 30
0.0
 11
-413.4213296703245
 21
-170.7164450624908
 31
0.0
  0
ARC
  5
1966A
330
1E
100
AcDbEntity
  8
DETAIL
  6
CONTINUOUS
100
AcDbCircle
 10
-413.1841115206216
 20
-165.0067951763351
 30
0.0
 40
2.945054685461506
100
AcDbArc
 50
88.10062859974328
 51
264.3727778097368
  0
LINE
  5
1966B
330
1E
100
AcDbEntity
  8
DETAIL
  6
CONTINUOUS
100
AcDbLine
 10
-412.5957174770219
 20
-172.7716495831795
 30
0.0
 11
-412.5869934126667
 21
-143.5260623241881
 31
0.0
  0
LINE
  5
1966C
330
1E
100
AcDbEntity
  8
DETAIL
  6
CONTINUOUS
100
AcDbLine
 10
-413.0864999999967
 20
-148.2587774086127
 30
0.0
 11
-413.0864999999956
 21
-162.0633585639041
 31
0.0
  0
ARC
  5
1966D
330
1E
100
AcDbEntity
  8
DETAIL
  6
CONTINUOUS
100
AcDbCircle
 10
-411.490083853644
 20
-171.8702124477553
 30
0.0
 40
0.9058395618070807
100
AcDbArc
 50
264.3488857532338
 51
350.0688060595861
  0
ARC
  5
1966E
330
1E
100
AcDbEntity
  8
DETAIL
  6
CONTINUOUS
100
AcDbCircle
 10
-410.6455107568717
 20
-171.5709026694065
 30
0.0
 40
0.4580256036283231
100
AcDbArc
 50
194.7217501057241
 51
275.9768903239495
  0
ARC
  5
1966F
330
1E
100
AcDbEntity
  8
DETAIL
  6
CONTINUOUS
100
AcDbCircle
 10
-410.9709087771234
 20
-165.0140250982289
 30
0.0
 40
2.92509978904237
100
AcDbArc
 50
275.2765866849069
 51
92.30395450675452
  0
ARC
  5
19670
330
1E
100
AcDbEntity
  8
DETAIL
  6
CONTINUOUS
100
AcDbCircle
 10
-411.5167360142777
 20
-171.5814090499559
 30
0.0
 40
0.4411333751892939
100
AcDbArc
 50
261.8487961061412
 51
346.1111293280362
  0
LINE
  5
19671
330
1E
100
AcDbEntity
  8
DETAIL
  6
CONTINUOUS
100
AcDbLine
 10
-410.597817776269
 20
-172.0264384343803
 30
0.0
 11
-410.597717477015
 21
-171.4000031368063
 31
0.0
  0
LINE
  5
19672
330
1E
100
AcDbEntity
  8
DETAIL
  6
CONTINUOUS
100
AcDbLine
 10
-408.9196916390201
 20
-162.5969802897641
 30
0.0
 11
-404.1328494303916
 21
-162.5969802897641
 31
0.0
  0
LINE
  5
19673
330
1E
100
AcDbEntity
  8
DETAIL
  6
CONTINUOUS
100
AcDbLine
 10
-409.3234552361308
 20
-162.5969802897641
 30
0.0
 11
-404.1328494303916
 21
-162.5969802897641
 31
0.0
  0
ARC
  5
19674
330
1E
100
AcDbEntity
  8
DETAIL
  6
CONTINUOUS
100
AcDbCircle
 10
-408.8811516542874
 20
-170.6488013649058
 30
0.0
 40
1.873740197001145
100
AcDbArc
 50
182.0688695259963
 51
203.6350989826336
  0
LINE
  5
19675
330
1E
100
AcDbEntity
  8
DETAIL
  6
CONTINUOUS
100
AcDbLine
 10
-410.5976748915773
 20
-162.3094865182578
 30
0.0
 11
-410.7536704647546
 21
-170.7164447703989
 31
0.0
  0
LINE
  5
19676
330
1E
100
AcDbEntity
  8
DETAIL
  6
CONTINUOUS
100
AcDbLine
 10
-411.5792825229863
 20
-172.7716495831795
 30
0.0
 11
-411.588006587338
 21
-143.5260623422013
 31
0.0
  0
LINE
  5
19677
330
1E
100
AcDbEntity
  8
DETAIL
  6
CONTINUOUS
100
AcDbLine
 10
-411.0885000000025
 20
-148.2587774086127
 30
0.0
 11
-411.0885000000023
 21
-162.0912898929533
 31
0.0
  0
LINE
  5
19678
330
1E
100
AcDbEntity
  8
DETAIL
  6
CONTINUOUS
100
AcDbLine
 10
-421.5949490492012
 20
-168.88889996281
 30
0.0
 11
-421.8002439666532
 21
-163.1419079999689
 31
0.0
  0
LINE
  5
19679
330
1E
100
AcDbEntity
  8
DETAIL
  6
CONTINUOUS
100
AcDbLine
 10
-421.5949490492012
 20
-168.88889996281
 30
0.0
 11
-421.8002439666532
 21
-163.1419079999689
 31
0.0
  0
LINE
  5
1967A
330
1E
100
AcDbEntity
  8
DETAIL
  6
CONTINUOUS
100
AcDbLine
 10
-422.0870090637408
 20
-171.5413062851279
 30
0.0
 11
-421.0797231285404
 21
-171.5413073064618
 31
0.0
  0
ARC
  5
1967B
330
1E
100
AcDbEntity
  8
DETAIL
  6
CONTINUOUS
100
AcDbCircle
 10
-422.0734386088361
 20
-169.3883999628085
 30
0.0
 40
0.4994999999987614
100
AcDbArc
 50
90.0
 51
171.4381733824064
  0
LINE
  5
1967C
330
1E
100
AcDbEntity
  8
DETAIL
  6
CONTINUOUS
100
AcDbLine
 10
-422.5673720757868
 20
-169.3140361259946
 30
0.0
 11
-422.5769912508249
 21
-169.4055662251606
 31
0.0
  0
LINE
  5
1967D
330
1E
100
AcDbEntity
  8
DETAIL
  6
CONTINUOUS
100
AcDbLine
 10
-422.5769912508249
 20
-169.4055662251606
 30
0.0
 11
-422.5769912508249
 21
-171.108213593727
 31
0.0
  0
ARC
  5
1967E
330
1E
100
AcDbEntity
  8
DETAIL
  6
CONTINUOUS
100
AcDbCircle
 10
-422.1151851889981
 20
-171.0794649380044
 30
0.0
 40
0.4627000366823176
100
AcDbArc
 50
183.5622177582161
 51
273.4911872440024
  0
ARC
  5
1967F
330
1E
100
AcDbEntity
  8
DETAIL
  6
CONTINUOUS
100
AcDbCircle
 10
-419.8964798541701
 20
-166.175477011878
 30
0.0
 40
3.581460420831991
100
AcDbArc
 50
92.33106579370632
 51
122.1109753310676
  0
LINE
  5
19680
330
1E
100
AcDbEntity
  8
DETAIL
  6
CONTINUOUS
100
AcDbLine
 10
-421.0844057436871
 20
-171.9823431345306
 30
0.0
 11
-421.0844057436871
 21
-171.5413073017137
 31
0.0
  0
LINE
  5
19681
330
1E
100
AcDbEntity
  8
DETAIL
  6
CONTINUOUS
100
AcDbLine
 10
-421.5949490492009
 20
-168.88889996281
 30
0.0
 11
-422.0734386088361
 21
-168.88889996281
 31
0.0
  0
LINE
  5
19682
330
1E
100
AcDbEntity
  8
DETAIL
  6
CONTINUOUS
100
AcDbLine
 10
-421.5949490492009
 20
-168.88889996281
 30
0.0
 11
-422.0734386088361
 21
-168.88889996281
 31
0.0
  0
LINE
  5
19683
330
1E
100
AcDbEntity
  8
DETAIL
  6
CONTINUOUS
100
AcDbLine
 10
-421.0844057436871
 20
-171.9823431345306
 30
0.0
 11
-420.0460212646033
 21
-171.9823431345306
 31
0.0
  0
LINE
  5
19684
330
1E
100
AcDbEntity
  8
DETAIL
  6
CONTINUOUS
100
AcDbLine
 10
-421.0844057436871
 20
-171.9823431345306
 30
0.0
 11
-420.0460212646033
 21
-171.9823431345306
 31
0.0
  0
LINE
  5
19685
330
1E
100
AcDbEntity
  8
DETAIL
  6
CONTINUOUS
100
AcDbLine
 10
-420.0421505645798
 20
-162.5969802897641
 30
0.0
 11
-415.2553454730758
 21
-162.5958785416891
 31
0.0
  0
LINE
  5
19686
330
1E
100
AcDbEntity
  8
DETAIL
  6
CONTINUOUS
100
AcDbLine
 10
-420.0421505645798
 20
-162.5969802897641
 30
0.0
 11
-414.8753851204847
 21
-162.5957910886639
 31
0.0
  0
ARC
  5
19687
330
1E
100
AcDbEntity
  8
DETAIL
  6
CONTINUOUS
100
AcDbCircle
 10
-416.9808719045041
 20
-172.0530150855096
 30
0.0
 40
3.065963979627565
100
AcDbArc
 50
178.6791876201162
 51
228.9292821428444
  0
LINE
  5
19688
330
1E
100
AcDbEntity
  8
DETAIL
  6
CONTINUOUS
100
AcDbLine
 10
-402.580050950798
 20
-168.88889996281
 30
0.0
 11
-402.3747560333458
 21
-163.1419079999703
 31
0.0
  0
LINE
  5
19689
330
1E
100
AcDbEntity
  8
DETAIL
  6
CONTINUOUS
100
AcDbLine
 10
-401.5980087491743
 20
-169.4055662251625
 30
0.0
 11
-401.5980087491743
 21
-171.108213593727
 31
0.0
  0
LINE
  5
1968A
330
1E
100
AcDbEntity
  8
DETAIL
  6
CONTINUOUS
100
AcDbLine
 10
-402.580050950798
 20
-168.88889996281
 30
0.0
 11
-402.3747560333458
 21
-163.1419079999703
 31
0.0
  0
LINE
  5
1968B
330
1E
100
AcDbEntity
  8
DETAIL
  6
CONTINUOUS
100
AcDbLine
 10
-401.5980087491743
 20
-169.4055662251625
 30
0.0
 11
-401.5980087491743
 21
-171.108213593727
 31
0.0
  0
LINE
  5
1968C
330
1E
100
AcDbEntity
  8
DETAIL
  6
CONTINUOUS
100
AcDbLine
 10
-402.0879909362693
 20
-171.5413062851333
 30
0.0
 11
-403.095276720137
 21
-171.541321518647
 31
0.0
  0
LINE
  5
1968D
330
1E
100
AcDbEntity
  8
DETAIL
  6
CONTINUOUS
100
AcDbLine
 10
-403.095276720137
 20
-171.541321518647
 30
0.0
 11
-403.0916072752106
 21
-171.8869311448746
 31
0.0
  0
LINE
  5
1968E
330
1E
100
AcDbEntity
  8
DETAIL
  6
CONTINUOUS
100
AcDbLine
 10
-403.0916072752106
 20
-171.8869311448746
 30
0.0
 11
-403.0905942563248
 21
-171.9823431345306
 31
0.0
  0
ARC
  5
1968F
330
1E
100
AcDbEntity
  8
DETAIL
  6
CONTINUOUS
100
AcDbCircle
 10
-402.1149246517243
 20
-169.405643109343
 30
0.0
 40
0.5169159082676897
100
AcDbArc
 50
0.0085219646151027
 51
88.51862995785579
  0
ARC
  5
19690
330
1E
100
AcDbEntity
  8
DETAIL
  6
CONTINUOUS
100
AcDbCircle
 10
-402.0598148567868
 20
-171.0794648862114
 30
0.0
 40
0.4627000855988304
100
AcDbArc
 50
266.508818804114
 51
356.4377761929571
  0
ARC
  5
19691
330
1E
100
AcDbEntity
  8
DETAIL
  6
CONTINUOUS
100
AcDbCircle
 10
-407.4784360711246
 20
-171.9006462581518
 30
0.0
 40
3.378772921061041
100
AcDbArc
 50
312.0677427595781
 51
358.6144844428809
  0
ARC
  5
19692
330
1E
100
AcDbEntity
  8
DETAIL
  6
CONTINUOUS
100
AcDbCircle
 10
-404.5964131980045
 20
-167.2010913542751
 30
0.0
 40
4.627389119255126
100
AcDbArc
 50
61.30739406424525
 51
84.25056471303333
  0
LINE
  5
19693
330
1E
100
AcDbEntity
  8
DETAIL
  6
CONTINUOUS
100
AcDbLine
 10
-402.5800509507979
 20
-168.88889996281
 30
0.0
 11
-402.1015613911758
 21
-168.88889996281
 31
0.0
  0
LINE
  5
19694
330
1E
100
AcDbEntity
  8
DETAIL
  6
CONTINUOUS
100
AcDbLine
 10
-402.5800509507979
 20
-168.88889996281
 30
0.0
 11
-402.1015613911758
 21
-168.88889996281
 31
0.0
  0
LINE
  5
19695
330
1E
100
AcDbEntity
  8
DETAIL
  6
CONTINUOUS
100
AcDbLine
 10
-404.1006509873033
 20
-171.9823431345309
 30
0.0
 11
-403.0905942563248
 21
-171.9823431345306
 31
0.0
  0
ARC
  5
19696
330
1E
100
AcDbEntity
  8
DETAIL
  6
CONTINUOUS
100
AcDbCircle
 10
-421.8897677626454
 20
-145.250313435041
 30
0.0
 40
9.303138114700622
100
AcDbArc
 50
341.1324446327767
 51
359.4887518888008
  0
ARC
  5
19697
330
1E
100
AcDbEntity
  8
DETAIL
  6
CONTINUOUS
100
AcDbCircle
 10
-402.2517593078254
 20
-145.2418085465594
 30
0.0
 40
9.33756323541516
100
AcDbArc
 50
181.1508954655483
 51
198.8505178721118
  0
ARC
  5
19698
330
1E
100
AcDbEntity
  8
DETAIL
  6
CONTINUOUS
100
AcDbCircle
 10
-438.2157593078217
 20
-145.2418085465594
 30
0.0
 40
9.33756323541516
100
AcDbArc
 50
181.1508954655483
 51
198.8505178721118
  0
ARC
  5
19699
330
1E
100
AcDbEntity
  8
DETAIL
  6
CONTINUOUS
100
AcDbCircle
 10
-457.8537677626418
 20
-145.250313435041
 30
0.0
 40
9.303138114700622
100
AcDbArc
 50
341.1324446327767
 51
359.4887518888008
  0
LINE
  5
1969A
330
1E
100
AcDbEntity
  8
DETAIL
  6
CONTINUOUS
100
AcDbLine
 10
-447.0524999999987
 20
-148.2587774086127
 30
0.0
 11
-447.0524999999986
 21
-162.0912898929533
 31
0.0
  0
LINE
  5
1969B
330
1E
100
AcDbEntity
  8
DETAIL
  6
CONTINUOUS
100
AcDbLine
 10
-447.5432825229827
 20
-172.7716495831795
 30
0.0
 11
-447.5520065873342
 21
-143.5260623422013
 31
0.0
  0
LINE
  5
1969C
330
1E
100
AcDbEntity
  8
DETAIL
  6
CONTINUOUS
100
AcDbLine
 10
-449.050499999993
 20
-148.2587774086127
 30
0.0
 11
-449.0504999999919
 21
-162.0633585639041
 31
0.0
  0
LINE
  5
1969D
330
1E
100
AcDbEntity
  8
DETAIL
  6
CONTINUOUS
100
AcDbLine
 10
-448.5597174770181
 20
-172.7716495831795
 30
0.0
 11
-448.5509934126629
 21
-143.5260623241881
 31
0.0
  0
LINE
  5
1969E
330
1E
100
AcDbEntity
  8
DETAIL
  6
CONTINUOUS
100
AcDbLine
 10
-440.0646509872997
 20
-171.9823431345309
 30
0.0
 11
-439.0545942563211
 21
-171.9823431345306
 31
0.0
  0
LINE
  5
1969F
330
1E
100
AcDbEntity
  8
DETAIL
  6
CONTINUOUS
100
AcDbLine
 10
-438.5440509507942
 20
-168.88889996281
 30
0.0
 11
-438.0655613911722
 21
-168.88889996281
 31
0.0
  0
LINE
  5
196A0
330
1E
100
AcDbEntity
  8
DETAIL
  6
CONTINUOUS
100
AcDbLine
 10
-438.5440509507942
 20
-168.88889996281
 30
0.0
 11
-438.0655613911722
 21
-168.88889996281
 31
0.0
  0
ARC
  5
196A1
330
1E
100
AcDbEntity
  8
DETAIL
  6
CONTINUOUS
100
AcDbCircle
 10
-440.5604131980007
 20
-167.2010913542751
 30
0.0
 40
4.627389119255126
100
AcDbArc
 50
61.30739406424525
 51
84.25056471303333
  0
ARC
  5
196A2
330
1E
100
AcDbEntity
  8
DETAIL
  6
CONTINUOUS
100
AcDbCircle
 10
-443.4424360711209
 20
-171.9006462581518
 30
0.0
 40
3.378772921061041
100
AcDbArc
 50
312.0677427595781
 51
358.6144844428809
  0
ARC
  5
196A3
330
1E
100
AcDbEntity
  8
DETAIL
  6
CONTINUOUS
100
AcDbCircle
 10
-438.0238148567833
 20
-171.0794648862114
 30
0.0
 40
0.4627000855988304
100
AcDbArc
 50
266.508818804114
 51
356.4377761929571
  0
ARC
  5
196A4
330
1E
100
AcDbEntity
  8
DETAIL
  6
CONTINUOUS
100
AcDbCircle
 10
-438.0789246517206
 20
-169.405643109343
 30
0.0
 40
0.5169159082676897
100
AcDbArc
 50
0.0085219646151027
 51
88.51862995785579
  0
LINE
  5
196A5
330
1E
100
AcDbEntity
  8
DETAIL
  6
CONTINUOUS
100
AcDbLine
 10
-439.0556072752069
 20
-171.8869311448746
 30
0.0
 11
-439.0545942563211
 21
-171.9823431345306
 31
0.0
  0
LINE
  5
196A6
330
1E
100
AcDbEntity
  8
DETAIL
  6
CONTINUOUS
100
AcDbLine
 10
-439.0592767201333
 20
-171.541321518647
 30
0.0
 11
-439.0556072752069
 21
-171.8869311448746
 31
0.0
  0
LINE
  5
196A7
330
1E
100
AcDbEntity
  8
DETAIL
  6
CONTINUOUS
100
AcDbLine
 10
-438.0519909362655
 20
-171.5413062851333
 30
0.0
 11
-439.0592767201333
 21
-171.541321518647
 31
0.0
  0
LINE
  5
196A8
330
1E
100
AcDbEntity
  8
DETAIL
  6
CONTINUOUS
100
AcDbLine
 10
-437.5620087491705
 20
-169.4055662251625
 30
0.0
 11
-437.5620087491705
 21
-171.108213593727
 31
0.0
  0
LINE
  5
196A9
330
1E
100
AcDbEntity
  8
DETAIL
  6
CONTINUOUS
100
AcDbLine
 10
-438.5440509507943
 20
-168.88889996281
 30
0.0
 11
-438.3387560333422
 21
-163.1419079999703
 31
0.0
  0
LINE
  5
196AA
330
1E
100
AcDbEntity
  8
DETAIL
  6
CONTINUOUS
100
AcDbLine
 10
-437.5620087491705
 20
-169.4055662251625
 30
0.0
 11
-437.5620087491705
 21
-171.108213593727
 31
0.0
  0
LINE
  5
196AB
330
1E
100
AcDbEntity
  8
DETAIL
  6
CONTINUOUS
100
AcDbLine
 10
-438.5440509507943
 20
-168.88889996281
 30
0.0
 11
-438.3387560333422
 21
-163.1419079999703
 31
0.0
  0
ARC
  5
196AC
330
1E
100
AcDbEntity
  8
DETAIL
  6
CONTINUOUS
100
AcDbCircle
 10
-452.9448719045002
 20
-172.0530150855096
 30
0.0
 40
3.065963979627565
100
AcDbArc
 50
178.6791876201162
 51
228.9292821428444
  0
LINE
  5
196AD
330
1E
100
AcDbEntity
  8
DETAIL
  6
CONTINUOUS
100
AcDbLine
 10
-456.0061505645761
 20
-162.5969802897641
 30
0.0
 11
-450.8393851204808
 21
-162.5957910886639
 31
0.0
  0
LINE
  5
196AE
330
1E
100
AcDbEntity
  8
DETAIL
  6
CONTINUOUS
100
AcDbLine
 10
-456.0061505645761
 20
-162.5969802897641
 30
0.0
 11
-451.2193454730723
 21
-162.5958785416891
 31
0.0
  0
LINE
  5
196AF
330
1E
100
AcDbEntity
  8
DETAIL
  6
CONTINUOUS
100
AcDbLine
 10
-457.0484057436833
 20
-171.9823431345306
 30
0.0
 11
-456.0100212645997
 21
-171.9823431345306
 31
0.0
  0
LINE
  5
196B0
330
1E
100
AcDbEntity
  8
DETAIL
  6
CONTINUOUS
100
AcDbLine
 10
-457.0484057436833
 20
-171.9823431345306
 30
0.0
 11
-456.0100212645997
 21
-171.9823431345306
 31
0.0
  0
LINE
  5
196B1
330
1E
100
AcDbEntity
  8
DETAIL
  6
CONTINUOUS
100
AcDbLine
 10
-457.5589490491974
 20
-168.88889996281
 30
0.0
 11
-458.0374386088323
 21
-168.88889996281
 31
0.0
  0
LINE
  5
196B2
330
1E
100
AcDbEntity
  8
DETAIL
  6
CONTINUOUS
100
AcDbLine
 10
-457.5589490491974
 20
-168.88889996281
 30
0.0
 11
-458.0374386088323
 21
-168.88889996281
 31
0.0
  0
LINE
  5
196B3
330
1E
100
AcDbEntity
  8
DETAIL
  6
CONTINUOUS
100
AcDbLine
 10
-457.0484057436833
 20
-171.9823431345306
 30
0.0
 11
-457.0484057436833
 21
-171.5413073017137
 31
0.0
  0
ARC
  5
196B4
330
1E
100
AcDbEntity
  8
DETAIL
  6
CONTINUOUS
100
AcDbCircle
 10
-455.8604798541663
 20
-166.175477011878
 30
0.0
 40
3.581460420831991
100
AcDbArc
 50
92.33106579370632
 51
122.1109753310676
  0
ARC
  5
196B5
330
1E
100
AcDbEntity
  8
DETAIL
  6
CONTINUOUS
100
AcDbCircle
 10
-458.0791851889943
 20
-171.0794649380044
 30
0.0
 40
0.4627000366823176
100
AcDbArc
 50
183.5622177582161
 51
273.4911872440024
  0
LINE
  5
196B6
330
1E
100
AcDbEntity
  8
DETAIL
  6
CONTINUOUS
100
AcDbLine
 10
-458.5409912508211
 20
-169.4055662251606
 30
0.0
 11
-458.5409912508211
 21
-171.108213593727
 31
0.0
  0
LINE
  5
196B7
330
1E
100
AcDbEntity
  8
DETAIL
  6
CONTINUOUS
100
AcDbLine
 10
-458.5313720757831
 20
-169.3140361259946
 30
0.0
 11
-458.5409912508211
 21
-169.4055662251606
 31
0.0
  0
ARC
  5
196B8
330
1E
100
AcDbEntity
  8
DETAIL
  6
CONTINUOUS
100
AcDbCircle
 10
-458.0374386088323
 20
-169.3883999628085
 30
0.0
 40
0.4994999999987614
100
AcDbArc
 50
90.0
 51
171.4381733824064
  0
LINE
  5
196B9
330
1E
100
AcDbEntity
  8
DETAIL
  6
CONTINUOUS
100
AcDbLine
 10
-458.0510090637371
 20
-171.5413062851279
 30
0.0
 11
-457.0437231285368
 21
-171.5413073064618
 31
0.0
  0
LINE
  5
196BA
330
1E
100
AcDbEntity
  8
DETAIL
  6
CONTINUOUS
100
AcDbLine
 10
-457.5589490491974
 20
-168.88889996281
 30
0.0
 11
-457.7642439666496
 21
-163.1419079999689
 31
0.0
  0
LINE
  5
196BB
330
1E
100
AcDbEntity
  8
DETAIL
  6
CONTINUOUS
100
AcDbLine
 10
-457.5589490491974
 20
-168.88889996281
 30
0.0
 11
-457.7642439666496
 21
-163.1419079999689
 31
0.0
  0
LINE
  5
196BC
330
1E
100
AcDbEntity
  8
DETAIL
  6
CONTINUOUS
100
AcDbLine
 10
-446.5616748915736
 20
-162.3094865182578
 30
0.0
 11
-446.7176704647508
 21
-170.7164447703989
 31
0.0
  0
ARC
  5
196BD
330
1E
100
AcDbEntity
  8
DETAIL
  6
CONTINUOUS
100
AcDbCircle
 10
-444.8451516542836
 20
-170.6488013649058
 30
0.0
 40
1.873740197001145
100
AcDbArc
 50
182.0688695259963
 51
203.6350989826336
  0
LINE
  5
196BE
330
1E
100
AcDbEntity
  8
DETAIL
  6
CONTINUOUS
100
AcDbLine
 10
-445.2874552361271
 20
-162.5969802897641
 30
0.0
 11
-440.0968494303878
 21
-162.5969802897641
 31
0.0
  0
LINE
  5
196BF
330
1E
100
AcDbEntity
  8
DETAIL
  6
CONTINUOUS
100
AcDbLine
 10
-444.8836916390162
 20
-162.5969802897641
 30
0.0
 11
-440.0968494303878
 21
-162.5969802897641
 31
0.0
  0
LINE
  5
196C0
330
1E
100
AcDbEntity
  8
DETAIL
  6
CONTINUOUS
100
AcDbLine
 10
-446.5618177762653
 20
-172.0264384343803
 30
0.0
 11
-446.5617174770112
 21
-171.4000031368063
 31
0.0
  0
ARC
  5
196C1
330
1E
100
AcDbEntity
  8
DETAIL
  6
CONTINUOUS
100
AcDbCircle
 10
-447.4807360142739
 20
-171.5814090499559
 30
0.0
 40
0.4411333751892939
100
AcDbArc
 50
261.8487961061412
 51
346.1111293280362
  0
ARC
  5
196C2
330
1E
100
AcDbEntity
  8
DETAIL
  6
CONTINUOUS
100
AcDbCircle
 10
-446.9349087771196
 20
-165.0140250982289
 30
0.0
 40
2.92509978904237
100
AcDbArc
 50
275.2765866849069
 51
92.30395450675452
  0
ARC
  5
196C3
330
1E
100
AcDbEntity
  8
DETAIL
  6
CONTINUOUS
100
AcDbCircle
 10
-446.6095107568681
 20
-171.5709026694065
 30
0.0
 40
0.4580256036283231
100
AcDbArc
 50
194.7217501057241
 51
275.9768903239495
  0
ARC
  5
196C4
330
1E
100
AcDbEntity
  8
DETAIL
  6
CONTINUOUS
100
AcDbCircle
 10
-447.4540838536404
 20
-171.8702124477553
 30
0.0
 40
0.9058395618070807
100
AcDbArc
 50
264.3488857532338
 51
350.0688060595861
  0
ARC
  5
196C5
330
1E
100
AcDbEntity
  8
DETAIL
  6
CONTINUOUS
100
AcDbCircle
 10
-449.1481115206179
 20
-165.0067951763351
 30
0.0
 40
2.945054685461506
100
AcDbArc
 50
88.10062859974328
 51
264.3727778097368
  0
LINE
  5
196C6
330
1E
100
AcDbEntity
  8
DETAIL
  6
CONTINUOUS
100
AcDbLine
 10
-449.5413237190176
 20
-162.309484383841
 30
0.0
 11
-449.385329670321
 21
-170.7164450624908
 31
0.0
  0
ARC
  5
196C7
330
1E
100
AcDbEntity
  8
DETAIL
  6
CONTINUOUS
100
AcDbCircle
 10
-449.4934896044386
 20
-171.5709058305918
 30
0.0
 40
0.4580258955822921
100
AcDbArc
 50
264.0231618623662
 51
345.2782887542624
  0
ARC
  5
196C8
330
1E
100
AcDbEntity
  8
DETAIL
  6
CONTINUOUS
100
AcDbCircle
 10
-448.6222098878469
 20
-171.581370390339
 30
0.0
 40
0.4411958765896994
100
AcDbArc
 50
193.8924280315769
 51
278.1724350940846
  0
ARC
  5
196C9
330
1E
100
AcDbEntity
  8
DETAIL
  6
CONTINUOUS
100
AcDbCircle
 10
-451.2578448455723
 20
-170.6488025045821
 30
0.0
 40
1.873736533556753
100
AcDbArc
 50
336.3648900348446
 51
357.9311523667779
  0
ARC
  5
196CA
330
1E
100
AcDbEntity
  8
DETAIL
  6
CONTINUOUS
100
AcDbCircle
 10
-448.648915554254
 20
-171.8702109630179
 30
0.0
 40
0.9058409810246523
100
AcDbArc
 50
189.9314979901563
 51
275.6510677296061
  0
LINE
  5
196CB
330
1E
100
AcDbEntity
  8
DETAIL
  6
CONTINUOUS
100
AcDbLine
 10
-449.5411822005288
 20
-172.0264419293838
 30
0.0
 11
-449.5412825229823
 21
-171.4000031368031
 31
0.0
  0
LINE
  5
196CC
330
1E
100
AcDbEntity
  8
DETAIL
  6
CONTINUOUS
100
AcDbLine
 10
-448.5597174770072
 20
-172.7716495831798
 30
0.0
 11
-447.5432825229827
 21
-172.7716495831798
 31
0.0
  0
LINE
  5
196CD
330
1E
100
AcDbEntity
  8
DETAIL
  6
CONTINUOUS
100
AcDbLine
 10
-447.543507313504
 20
-172.0180867301636
 30
0.0
 11
-448.5597174770181
 21
-172.0180858056394
 31
0.0
  0
LINE
  5
196CE
330
1E
100
AcDbEntity
  8
DETAIL
  6
CONTINUOUS
100
AcDbLine
 10
-454.9591796912745
 20
-174.3644430563785
 30
0.0
 11
-441.1786285348598
 21
-174.408889047609
 31
0.0
  0
LINE
  5
1971E
330
1E
100
AcDbEntity
  8
OUTLINE
  6
CONTINUOUS
100
AcDbLine
 10
584.9145000000053
 20
-114.1511542420198
 30
0.0
 11
583.3384664989908
 21
-114.1511542420198
 31
0.0
  0
LINE
  5
1971F
330
1E
100
AcDbEntity
  8
OUTLINE
  6
CONTINUOUS
100
AcDbLine
 10
579.3816159858097
 20
-265.9994115218064
 30
0.0
 11
576.3236612056561
 21
-265.9994115218064
 31
0.0
  0
LINE
  5
19722
330
1E
100
AcDbEntity
  8
OUTLINE
  6
CONTINUOUS
100
AcDbLine
 10
582.5644500531607
 20
-274.4906542420199
 30
0.0
 11
582.3646500913172
 21
-274.4906542420199
 31
0.0
  0
SPLINE
  5
19723
330
1E
100
AcDbEntity
  8
OUTLINE
  6
CONTINUOUS
100
AcDbSpline
210
0.0
220
0.0
230
1.0
 70
     8
 71
     3
 72
    11
 73
     7
 74
     5
 42
0.0000000001
 43
0.0000000001
 44
0.00000001
 40
0.0
 40
0.0
 40
0.0
 40
0.0
 40
278.7966010391186
 40
579.3620883733418
 40
856.8475679950394
 40
1158.810784808429
 40
1158.810784808429
 40
1158.810784808429
 40
1158.810784808429
 10
579.1808439576333
 20
-285.5616043143516
 30
0.0
 10
486.3291864859366
 20
-289.5457530855724
 30
0.0
 10
293.3758650272742
 20
-297.8251393463864
 30
0.0
 10
7.736730015098146
 20
-301.0355257283735
 30
0.0
 10
-285.622289582228
 20
-298.0148325290993
 30
0.0
 10
-478.6105157492991
 20
-289.827960145633
 30
0.0
 10
-579.1808439576278
 20
-285.5616043143506
 30
0.0
 11
579.1808439576333
 21
-285.5616043143516
 31
0.0
 11
300.5834683572728
 21
-296.0994911817148
 31
0.0
 11
0.0432909757919333
 21
-299.9999983448422
 31
0.0
 11
-277.422297126267
 21
-296.6775263446568
 31
0.0
 11
-579.1808439576278
 21
-285.5616043143506
 31
0.0
  0
LINE
  5
19725
330
1E
100
AcDbEntity
  8
OUTLINE
  6
CONTINUOUS
100
AcDbLine
 10
-576.9225000000013
 20
0.0000000000004547
 30
0.0
 11
576.9225000000013
 21
-0.0000000000004547
 31
0.0
  0
LINE
  5
19729
330
1E
100
AcDbEntity
  8
OUTLINE
  6
CONTINUOUS
100
AcDbLine
 10
-516.8326499999939
 20
-0.0000000000004547
 30
0.0
 11
465.0345000000043
 21
-0.0000000000004547
 31
0.0
  0
LINE
  5
1973F
330
1E
100
AcDbEntity
  8
OUTLINE
  6
CONTINUOUS
100
AcDbLine
 10
-579.8808053846396
 20
-265.5173309327242
 30
0.0
 11
-584.999999010709
 21
-115.6496542420204
 31
0.0
  0
ARC
  5
19740
330
1E
100
AcDbEntity
  8
OUTLINE
  6
CONTINUOUS
100
AcDbCircle
 10
-576.3306649319791
 20
-266.9986637134257
 30
0.0
 40
0.9992531575737155
100
AcDbArc
 50
2.014168813236501
 51
89.92033317421862
  0
ARC
  5
19741
330
1E
100
AcDbEntity
  8
OUTLINE
  6
CONTINUOUS
100
AcDbCircle
 10
-579.3816059932969
 20
-265.499908183989
 30
0.0
 40
0.4995033378277186
100
AcDbArc
 50
181.9988905403939
 51
269.9996301448811
  0
LINE
  5
19742
330
1E
100
AcDbEntity
  8
OUTLINE
  6
CONTINUOUS
100
AcDbLine
 10
-582.3646500913155
 20
-274.4906564280349
 30
0.0
 11
-582.3558521844216
 21
-273.9839337358858
 31
0.0
  0
ARC
  5
19743
330
1E
100
AcDbEntity
  8
OUTLINE
  6
CONTINUOUS
100
AcDbCircle
 10
-581.3568782787124
 20
-273.99115424202
 30
0.0
 40
0.9989999999999991
100
AcDbArc
 50
90.0
 51
179.0000000000116
  0
LINE
  5
19744
330
1E
100
AcDbEntity
  8
OUTLINE
  6
CONTINUOUS
100
AcDbLine
 10
-582.5450036594202
 20
-275.0248032340454
 30
0.0
 11
-582.5644500531589
 21
-274.4906542420199
 31
0.0
  0
LINE
  5
19745
330
1E
100
AcDbEntity
  8
OUTLINE
  6
CONTINUOUS
100
AcDbLine
 10
-579.5151212800712
 20
-275.9891542420212
 30
0.0
 11
-579.1808439576278
 21
-285.5616043143503
 31
0.0
  0
LINE
  5
19746
330
1E
100
AcDbEntity
  8
OUTLINE
  6
CONTINUOUS
100
AcDbLine
 10
-579.5151212800712
 20
-275.9891542420212
 30
0.0
 11
-581.5473984894114
 21
-275.9891542420214
 31
0.0
  0
ARC
  5
19748
330
1E
100
AcDbEntity
  8
OUTLINE
  6
CONTINUOUS
100
AcDbCircle
 10
-581.5469879133006
 20
-274.9905509784906
 30
0.0
 40
0.9986033479336484
100
AcDbArc
 50
181.9656400169461
 51
269.9764428195666
  0
LINE
  5
1974A
330
1E
100
AcDbEntity
  8
OUTLINE
  6
CONTINUOUS
100
AcDbLine
 10
-575.1215379986814
 20
-272.992154242022
 30
0.0
 11
-575.3320291469017
 21
-266.9635433249946
 31
0.0
  0
LINE
  5
1980A
330
1E
100
AcDbEntity
  8
OUTLINE
  6
CONTINUOUS
100
AcDbLine
 10
-576.9224999999924
 20
-78.93456334311348
 30
0.0
 11
-576.9225000000013
 21
0.0000000000004547
 31
0.0
  0
ARC
  5
1980D
330
1E
100
AcDbEntity
  8
OUTLINE
  6
CONTINUOUS
100
AcDbCircle
 10
-584.9144999999926
 20
-78.93456334311348
 30
0.0
 40
7.99200000000012
100
AcDbArc
 50
328.3804935222821
 51
0.0
  0
LINE
  5
1980E
330
1E
100
AcDbEntity
  8
OUTLINE
  6
CONTINUOUS
100
AcDbLine
 10
-584.914410149503
 20
-94.74420798541132
 30
0.0
 11
-584.9144999999926
 21
-114.1511542420198
 31
0.0
  0
ARC
  5
1980F
330
1E
100
AcDbEntity
  8
OUTLINE
  6
CONTINUOUS
100
AcDbCircle
 10
-582.9164550824034
 20
-94.74403265786486
 30
0.0
 40
1.997955074786593
100
AcDbArc
 50
148.3850433034911
 51
180.0050279050699
  0
LINE
  5
19810
330
1E
100
AcDbEntity
  8
OUTLINE
  6
CONTINUOUS
100
AcDbLine
 10
-583.3384664989762
 20
-114.1511542420216
 30
0.0
 11
-583.3739610960918
 21
-115.167586515054
 31
0.0
  0
ARC
  5
19811
330
1E
100
AcDbEntity
  8
OUTLINE
  6
CONTINUOUS
100
AcDbCircle
 10
-583.8731564081418
 20
-115.1501546634194
 30
0.0
 40
0.4994995786010936
100
AcDbArc
 50
270.0000496133994
 51
358.0000496134609
  0
LINE
  5
19812
330
1E
100
AcDbEntity
  8
OUTLINE
  6
CONTINUOUS
100
AcDbLine
 10
-584.6178938882068
 20
-93.69668817252614
 30
0.0
 11
-578.1089244471486
 21
-83.12457591999873
 31
0.0
  0
LINE
  5
19B86
330
1E
100
AcDbEntity
  8
OUTLINE
  6
CONTINUOUS
100
AcDbLine
 10
579.8808053813217
 20
-265.5173310281138
 30
0.0
 11
585.000000989291
 21
-115.6496542420204
 31
0.0
  0
LINE
  5
19C00
330
1E
100
AcDbEntity
  8
OUTLINE
  6
CONTINUOUS
100
AcDbLine
 10
582.5457896302549
 20
-275.025018838683
 30
0.0
 11
582.5644500531607
 21
-274.4906542420199
 31
0.0
  0
ARC
  5
19C01
330
1E
100
AcDbEntity
  8
OUTLINE
  6
CONTINUOUS
100
AcDbCircle
 10
576.3306023951217
 20
-266.9985671464542
 30
0.0
 40
0.9991561003631435
100
AcDbArc
 50
90.39803996597271
 51
177.0395602237165
  0
ARC
  5
19C02
330
1E
100
AcDbEntity
  8
OUTLINE
  6
CONTINUOUS
100
AcDbCircle
 10
579.3816094471702
 20
-265.4999117605362
 30
0.0
 40
0.4994997613127146
100
AcDbArc
 50
270.0007500232645
 51
358.0014946953953
  0
LINE
  5
19C06
330
1E
100
AcDbEntity
  8
OUTLINE
  6
CONTINUOUS
100
AcDbLine
 10
582.3646500913172
 20
-274.4906564280349
 30
0.0
 11
582.3558521844359
 21
-273.9839337358858
 31
0.0
  0
LINE
  5
19C07
330
1E
100
AcDbEntity
  8
OUTLINE
  6
CONTINUOUS
100
AcDbLine
 10
579.5151212800838
 20
-275.9891542420214
 30
0.0
 11
579.1808439576298
 21
-285.5616043143503
 31
0.0
  0
LINE
  5
19C09
330
1E
100
AcDbEntity
  8
OUTLINE
  6
CONTINUOUS
100
AcDbLine
 10
579.5151212800856
 20
-275.9891542420214
 30
0.0
 11
581.5473983414602
 21
-275.9891542420214
 31
0.0
  0
LINE
  5
19C0B
330
1E
100
AcDbEntity
  8
OUTLINE
  6
CONTINUOUS
100
AcDbLine
 10
575.3327797361207
 20
-266.9469642969493
 30
0.0
 11
575.1215388074934
 21
-272.992154242022
 31
0.0
  0
ARC
  5
19C0D
330
1E
100
AcDbEntity
  8
OUTLINE
  6
CONTINUOUS
100
AcDbCircle
 10
581.3568782787142
 20
-273.99115424202
 30
0.0
 40
0.9990000000008606
100
AcDbArc
 50
0.9999999999882817
 51
90.0
  0
ARC
  5
19C0F
330
1E
100
AcDbEntity
  8
OUTLINE
  6
CONTINUOUS
100
AcDbCircle
 10
581.5473983414602
 20
-274.9901543946748
 30
0.0
 40
0.9989998473458838
100
AcDbArc
 50
270.000008486043
 51
358.0000084859597
  0
LINE
  5
19C50
330
1E
100
AcDbEntity
  8
OUTLINE
  6
CONTINUOUS
100
AcDbLine
 10
576.9225000000013
 20
-78.93456334311348
 30
0.0
 11
576.9225000000013
 21
-0.0000000000004547
 31
0.0
  0
LINE
  5
19C53
330
1E
100
AcDbEntity
  8
OUTLINE
  6
CONTINUOUS
100
AcDbLine
 10
584.9145000000053
 20
-94.74419131674631
 30
0.0
 11
584.9145000000053
 21
-114.1511542420198
 31
0.0
  0
ARC
  5
19C54
330
1E
100
AcDbEntity
  8
OUTLINE
  6
CONTINUOUS
100
AcDbCircle
 10
582.9164999999984
 20
-94.7441913167445
 30
0.0
 40
1.998000000000906
100
AcDbArc
 50
359.9999999999348
 51
31.61950647767342
  0
ARC
  5
19C55
330
1E
100
AcDbEntity
  8
OUTLINE
  6
CONTINUOUS
100
AcDbCircle
 10
584.9145000000053
 20
-78.93456334311348
 30
0.0
 40
7.991999999999991
100
AcDbArc
 50
180.0
 51
211.6195064777177
  0
LINE
  5
19C56
330
1E
100
AcDbEntity
  8
OUTLINE
  6
CONTINUOUS
100
AcDbLine
 10
583.3384664989908
 20
-114.1511542420216
 30
0.0
 11
583.3739610961065
 21
-115.167586515417
 31
0.0
  0
ARC
  5
19C57
330
1E
100
AcDbEntity
  8
OUTLINE
  6
CONTINUOUS
100
AcDbCircle
 10
583.8731564079616
 20
-115.1501546636068
 30
0.0
 40
0.4994995784139655
100
AcDbArc
 50
181.9999504074869
 51
269.9999504074446
  0
LINE
  5
19C58
330
1E
100
AcDbEntity
  8
OUTLINE
  6
CONTINUOUS
100
AcDbLine
 10
578.1089244471503
 20
-83.12457591999873
 30
0.0
 11
584.6178938882212
 21
-93.69668817252522
 31
0.0
  0
LINE
  5
19C5F
330
1E
100
AcDbEntity
  8
OUTLINE
  6
CONTINUOUS
100
AcDbLine
 10
583.8731559756179
 20
-115.6496542420204
 30
0.0
 11
585.000000989291
 21
-115.6496542420204
 31
0.0
  0
LINE
  5
19C61
330
1E
100
AcDbEntity
  8
OUTLINE
  6
CONTINUOUS
100
AcDbLine
 10
575.1215388074934
 20
-272.9921542420191
 30
0.0
 11
581.3568782787142
 21
-272.9921542420191
 31
0.0
  0
LINE
  5
19C63
330
1E
100
AcDbEntity
  8
OUTLINE
  6
CONTINUOUS
100
AcDbLine
 10
-584.9144999999926
 20
-114.1511542420198
 30
0.0
 11
-583.3384664989762
 21
-114.1511542420216
 31
0.0
  0
LINE
  5
19C64
330
1E
100
AcDbEntity
  8
OUTLINE
  6
CONTINUOUS
100
AcDbLine
 10
-584.999999010709
 20
-115.6496542420204
 30
0.0
 11
-583.8731559756165
 21
-115.6496542420203
 31
0.0
  0
LINE
  5
19C65
330
1E
100
AcDbEntity
  8
OUTLINE
  6
CONTINUOUS
100
AcDbLine
 10
-581.3568782787124
 20
-272.9921542420199
 30
0.0
 11
-575.1215379986814
 21
-272.992154242022
 31
0.0
  0
LINE
  5
19C66
330
1E
100
AcDbEntity
  8
OUTLINE
  6
CONTINUOUS
100
AcDbLine
 10
-579.3816092176857
 20
-265.9994115218065
 30
0.0
 11
-576.3292755224584
 21
-265.9994115218031
 31
0.0
  0
LINE
  5
19C67
330
1E
100
AcDbEntity
  8
OUTLINE
  6
CONTINUOUS
100
AcDbLine
 10
-582.5644500531589
 20
-274.4906542420199
 30
0.0
 11
-582.3646500913155
 21
-274.4906564280349
 31
0.0
  0
ENDSEC
  0
SECTION
  2
OBJECTS
  0
DICTIONARY
  5
C
330
0
100
AcDbDictionary
  3
ACAD_GROUP
350
D
  3
ACAD_LAYOUT
350
19
  3
ACAD_MLINESTYLE
350
16
  3
ACAD_PLOTSETTINGS
350
18
  3
ACAD_PLOTSTYLENAME
350
E
  3
ACDBHEADERROUNDTRIPXREC
350
19CF1
  0
DICTIONARY
  5
19CD8
330
1E
100
AcDbDictionary
280
     1
  3
ACAD_LAYOUTSELFREF
360
19D13
  0
DICTIONARY
  5
19CD6
330
1A
100
AcDbDictionary
280
     1
  3
ACAD_LAYOUTSELFREF
360
19D12
  0
DICTIONARY
  5
D
102
{ACAD_REACTORS
330
C
102
}
330
C
100
AcDbDictionary
  0
DICTIONARY
  5
19
102
{ACAD_REACTORS
330
C
102
}
330
C
100
AcDbDictionary
  0
DICTIONARY
  5
16
102
{ACAD_REACTORS
330
C
102
}
330
C
100
AcDbDictionary
  3
STANDARD
350
17
  0
DICTIONARY
  5
18
102
{ACAD_REACTORS
330
C
102
}
330
C
100
AcDbDictionary
  0
ACDBDICTIONARYWDFLT
  5
E
102
{ACAD_REACTORS
330
C
102
}
330
C
100
AcDbDictionary
281
     1
  3
Normal
350
F
100
AcDbDictionaryWithDefault
340
F
  0
DICTIONARY
  5
19CF1
102
{ACAD_REACTORS
330
C
102
}
330
C
100
AcDbDictionary
  3
CEPSNTYPE
350
19CFB
  3
DIMSTYLEDATA
350
19CFF
  3
FINGERPRINTGUID
350
19CFC
  3
HYPERLINKBASE
350
19CF4
  3
INSUNITS
350
19CFA
  3
LAYOUTDICT
350
19CF6
  3
LWETCUNION
350
19CF9
  3
PLOTSETDICT
350
19CF7
  3
PLOTSTYLNAMDICT
350
19CF8
  3
PSVPSCALE
350
19CFE
  3
PUCSBASE
350
19D02
  3
PUCSORGBACK
350
19D08
  3
PUCSORGBOTTOM
350
19D04
  3
PUCSORGFRONT
350
19D07
  3
PUCSORGLEFT
350
19D05
  3
PUCSORGRIGHT
350
19D06
  3
PUCSORGTOP
350
19D03
  3
PUCSORTHOREF
350
19D00
  3
PUCSORTHOVIEW
350
19D01
  3
STYLESHEET
350
19CF5
  3
TSTACKALIGN
350
19CF2
  3
TSTACKSIZE
350
19CF3
  3
UCSBASE
350
19D0B
  3
UCSORGBACK
350
19D11
  3
UCSORGBOTTOM
350
19D0D
  3
UCSORGFRONT
350
19D10
  3
UCSORGLEFT
350
19D0E
  3
UCSORGRIGHT
350
19D0F
  3
UCSORGTOP
350
19D0C
  3
UCSORTHOREF
350
19D09
  3
UCSORTHOVIEW
350
19D0A
  3
VERSIONGUID
350
19CFD
  0
XRECORD
  5
19D13
102
{ACAD_REACTORS
330
19CD8
102
}
330
19CD8
100
AcDbXrecord
340
1E
  0
XRECORD
  5
19D12
102
{ACAD_REACTORS
330
19CD6
102
}
330
19CD6
100
AcDbXrecord
340
1A
  0
MLINESTYLE
  5
17
102
{ACAD_REACTORS
330
16
102
}
330
16
100
AcDbMlineStyle
  2
STANDARD
 70
     0
  3

 62
   256
 51
90.0
 52
90.0
 71
     2
 49
0.5
 62
   256
  6
BYLAYER
 49
-0.5
 62
   256
  6
BYLAYER
  0
ACDBPLACEHOLDER
  5
F
102
{ACAD_REACTORS
330
E
102
}
330
E
100
AcDbPlaceHolder
280
     0
  0
XRECORD
  5
19CFB
102
{ACAD_REACTORS
330
19CF1
102
}
330
19CF1
100
AcDbXrecord
 90
        0
  0
XRECORD
  5
19CFF
102
{ACAD_REACTORS
330
19CF1
102
}
330
19CF1
100
AcDbXrecord
1000
DSTYLE
1002
{
1070
   341
340
46
1070
   342
340
46
1002
}
  0
XRECORD
  5
19CFC
102
{ACAD_REACTORS
330
19CF1
102
}
330
19CF1
100
AcDbXrecord
  1
{97DA8DB6-C4F0-4C3D-ABEB-53C4FBBC7EFF}
  0
XRECORD
  5
19CF4
102
{ACAD_REACTORS
330
19CF1
102
}
330
19CF1
100
AcDbXrecord
  1

  0
XRECORD
  5
19CFA
102
{ACAD_REACTORS
330
19CF1
102
}
330
19CF1
100
AcDbXrecord
 90
        0
  0
XRECORD
  5
19CF6
102
{ACAD_REACTORS
330
19CF1
102
}
330
19CF1
100
AcDbXrecord
340
19
  0
XRECORD
  5
19CF9
102
{ACAD_REACTORS
330
19CF1
102
}
330
19CF1
100
AcDbXrecord
 90
    10781
  0
XRECORD
  5
19CF7
102
{ACAD_REACTORS
330
19CF1
102
}
330
19CF1
100
AcDbXrecord
340
18
  0
XRECORD
  5
19CF8
102
{ACAD_REACTORS
330
19CF1
102
}
330
19CF1
100
AcDbXrecord
340
E
  0
XRECORD
  5
19CFE
102
{ACAD_REACTORS
330
19CF1
102
}
330
19CF1
100
AcDbXrecord
 40
0.0
  0
XRECORD
  5
19D02
102
{ACAD_REACTORS
330
19CF1
102
}
330
19CF1
100
AcDbXrecord
340
0
  0
XRECORD
  5
19D08
102
{ACAD_REACTORS
330
19CF1
102
}
330
19CF1
100
AcDbXrecord
 10
0.0
 20
0.0
 30
0.0
  0
XRECORD
  5
19D04
102
{ACAD_REACTORS
330
19CF1
102
}
330
19CF1
100
AcDbXrecord
 10
0.0
 20
0.0
 30
0.0
  0
XRECORD
  5
19D07
102
{ACAD_REACTORS
330
19CF1
102
}
330
19CF1
100
AcDbXrecord
 10
0.0
 20
0.0
 30
0.0
  0
XRECORD
  5
19D05
102
{ACAD_REACTORS
330
19CF1
102
}
330
19CF1
100
AcDbXrecord
 10
0.0
 20
0.0
 30
0.0
  0
XRECORD
  5
19D06
102
{ACAD_REACTORS
330
19CF1
102
}
330
19CF1
100
AcDbXrecord
 10
0.0
 20
0.0
 30
0.0
  0
XRECORD
  5
19D03
102
{ACAD_REACTORS
330
19CF1
102
}
330
19CF1
100
AcDbXrecord
 10
0.0
 20
0.0
 30
0.0
  0
XRECORD
  5
19D00
102
{ACAD_REACTORS
330
19CF1
102
}
330
19CF1
100
AcDbXrecord
340
0
  0
XRECORD
  5
19D01
102
{ACAD_REACTORS
330
19CF1
102
}
330
19CF1
100
AcDbXrecord
 70
     0
  0
XRECORD
  5
19CF5
102
{ACAD_REACTORS
330
19CF1
102
}
330
19CF1
100
AcDbXrecord
  1
u.ctb
  0
XRECORD
  5
19CF2
102
{ACAD_REACTORS
330
19CF1
102
}
330
19CF1
100
AcDbXrecord
 90
        1
  0
XRECORD
  5
19CF3
102
{ACAD_REACTORS
330
19CF1
102
}
330
19CF1
100
AcDbXrecord
 90
       70
  0
XRECORD
  5
19D0B
102
{ACAD_REACTORS
330
19CF1
102
}
330
19CF1
100
AcDbXrecord
340
0
  0
XRECORD
  5
19D11
102
{ACAD_REACTORS
330
19CF1
102
}
330
19CF1
100
AcDbXrecord
 10
0.0
 20
0.0
 30
0.0
  0
XRECORD
  5
19D0D
102
{ACAD_REACTORS
330
19CF1
102
}
330
19CF1
100
AcDbXrecord
 10
0.0
 20
0.0
 30
0.0
  0
XRECORD
  5
19D10
102
{ACAD_REACTORS
330
19CF1
102
}
330
19CF1
100
AcDbXrecord
 10
0.0
 20
0.0
 30
0.0
  0
XRECORD
  5
19D0E
102
{ACAD_REACTORS
330
19CF1
102
}
330
19CF1
100
AcDbXrecord
 10
0.0
 20
0.0
 30
0.0
  0
XRECORD
  5
19D0F
102
{ACAD_REACTORS
330
19CF1
102
}
330
19CF1
100
AcDbXrecord
 10
0.0
 20
0.0
 30
0.0
  0
XRECORD
  5
19D0C
102
{ACAD_REACTORS
330
19CF1
102
}
330
19CF1
100
AcDbXrecord
 10
0.0
 20
0.0
 30
0.0
  0
XRECORD
  5
19D09
102
{ACAD_REACTORS
330
19CF1
102
}
330
19CF1
100
AcDbXrecord
340
0
  0
XRECORD
  5
19D0A
102
{ACAD_REACTORS
330
19CF1
102
}
330
19CF1
100
AcDbXrecord
 70
     0
  0
XRECORD
  5
19CFD
102
{ACAD_REACTORS
330
19CF1
102
}
330
19CF1
100
AcDbXrecord
  1
{1548081A-50BE-49CE-B2FC-B4876A4DBF8E}
  0
ENDSEC
  0
EOF
