  0
SECTION
  2
HEADER
  9
$ACADVER
  1
AC1014
  9
$ACADMAINTVER
 70
     9
  9
$DWGCODEPAGE
  3
ANSI_932
  9
$INSBASE
 10
0.0
 20
0.0
 30
0.0
  9
$EXTMIN
 10
-843.7546378231745
 20
-582.2283252957877
 30
-0.0015258207003583
  9
$EXTMAX
 10
305.500283341611
 20
285.323810642998
 30
0.0000000349246037
  9
$LIMMIN
 10
-3424.718897474421
 20
-241.2751718400066
  9
$LIMMAX
 10
5483.332090746102
 20
4682.367238430699
  9
$ORTHOMODE
 70
     1
  9
$REGENMODE
 70
     1
  9
$FILLMODE
 70
     1
  9
$QTEXTMODE
 70
     0
  9
$MIRRTEXT
 70
     0
  9
$DRAGMODE
 70
     2
  9
$LTSCALE
 40
20.0
  9
$OSMODE
 70
    37
  9
$ATTMODE
 70
     1
  9
$TEXTSIZE
 40
64.0
  9
$TRACEWID
 40
0.05
  9
$TEXTSTYLE
  7
STANDARD
  9
$CLAYER
  8
OUTLINE
  9
$CELTYPE
  6
CONTINUOUS
  9
$CECOLOR
 62
   256
  9
$CELTSCALE
 40
1.0
  9
$DELOBJ
 70
     1
  9
$DISPSILH
 70
     0
  9
$DIMSCALE
 40
1.0
  9
$DIMASZ
 40
10.0
  9
$DIMEXO
 40
20.0
  9
$DIMDLI
 40
200.0
  9
$DIMRND
 40
0.0
  9
$DIMDLE
 40
0.0
  9
$DIMEXE
 40
20.0
  9
$DIMTP
 40
0.0
  9
$DIMTM
 40
0.0
  9
$DIMTXT
 40
50.0
  9
$DIMCEN
 40
0.082
  9
$DIMTSZ
 40
0.0
  9
$DIMTOL
 70
     0
  9
$DIMLIM
 70
     0
  9
$DIMTIH
 70
     0
  9
$DIMTOH
 70
     0
  9
$DIMSE1
 70
     0
  9
$DIMSE2
 70
     0
  9
$DIMTAD
 70
     1
  9
$DIMZIN
 70
     8
  9
$DIMBLK
  1
ORIGIN
  9
$DIMASO
 70
     1
  9
$DIMSHO
 70
     0
  9
$DIMPOST
  1

  9
$DIMAPOST
  1

  9
$DIMALT
 70
     0
  9
$DIMALTD
 70
     2
  9
$DIMALTF
 40
25.4
  9
$DIMLFAC
 40
1.0
  9
$DIMTOFL
 70
     1
  9
$DIMTVP
 40
0.0
  9
$DIMTIX
 70
     0
  9
$DIMSOXD
 70
     0
  9
$DIMSAH
 70
     0
  9
$DIMBLK1
  1

  9
$DIMBLK2
  1

  9
$DIMSTYLE
  2
STANDARD
  9
$DIMCLRD
 70
     0
  9
$DIMCLRE
 70
     0
  9
$DIMCLRT
 70
     0
  9
$DIMTFAC
 40
1.0
  9
$DIMGAP
 40
10.0
  9
$DIMJUST
 70
     0
  9
$DIMSD1
 70
     0
  9
$DIMSD2
 70
     0
  9
$DIMTOLJ
 70
     1
  9
$DIMTZIN
 70
     0
  9
$DIMALTZ
 70
     0
  9
$DIMALTTZ
 70
     0
  9
$DIMFIT
 70
     3
  9
$DIMUPT
 70
     0
  9
$DIMUNIT
 70
     2
  9
$DIMDEC
 70
     1
  9
$DIMTDEC
 70
     1
  9
$DIMALTU
 70
     2
  9
$DIMALTTD
 70
     2
  9
$DIMTXSTY
  7
STANDARD
  9
$DIMAUNIT
 70
     0
  9
$LUNITS
 70
     2
  9
$LUPREC
 70
     4
  9
$SKETCHINC
 40
0.1
  9
$FILLETRAD
 40
5.0
  9
$AUNITS
 70
     1
  9
$AUPREC
 70
     3
  9
$MENU
  1
ACAD
  9
$ELEVATION
 40
0.0
  9
$PELEVATION
 40
0.0
  9
$THICKNESS
 40
0.0
  9
$LIMCHECK
 70
     0
  9
$BLIPMODE
 70
     0
  9
$CHAMFERA
 40
0.0
  9
$CHAMFERB
 40
0.0
  9
$CHAMFERC
 40
0.0
  9
$CHAMFERD
 40
0.0
  9
$SKPOLY
 70
     0
  9
$TDCREATE
 40
2450330.393205995
  9
$TDUPDATE
 40
2454720.402143472
  9
$TDINDWG
 40
1.0002108681
  9
$TDUSRTIMER
 40
1.0002108681
  9
$USRTIMER
 70
     1
  9
$ANGBASE
 50
0.0
  9
$ANGDIR
 70
     0
  9
$PDMODE
 70
     3
  9
$PDSIZE
 40
-2.0
  9
$PLINEWID
 40
0.0
  9
$COORDS
 70
     0
  9
$SPLFRAME
 70
     0
  9
$SPLINETYPE
 70
     6
  9
$SPLINESEGS
 70
     8
  9
$ATTDIA
 70
     0
  9
$ATTREQ
 70
     1
  9
$HANDLING
 70
-16383
  9
$HANDSEED
  5
182E6
  9
$SURFTAB1
 70
     6
  9
$SURFTAB2
 70
     6
  9
$SURFTYPE
 70
     6
  9
$SURFU
 70
     6
  9
$SURFV
 70
     6
  9
$UCSNAME
  2

  9
$UCSORG
 10
0.0
 20
0.0
 30
0.0
  9
$UCSXDIR
 10
1.0
 20
0.0
 30
0.0
  9
$UCSYDIR
 10
0.0
 20
1.0
 30
0.0
  9
$PUCSNAME
  2

  9
$PUCSORG
 10
0.0
 20
0.0
 30
0.0
  9
$PUCSXDIR
 10
1.0
 20
0.0
 30
0.0
  9
$PUCSYDIR
 10
0.0
 20
1.0
 30
0.0
  9
$USERI1
 70
     0
  9
$USERI2
 70
     0
  9
$USERI3
 70
     0
  9
$USERI4
 70
     0
  9
$USERI5
 70
     0
  9
$USERR1
 40
20.0
  9
$USERR2
 40
0.0
  9
$USERR3
 40
0.0
  9
$USERR4
 40
0.0
  9
$USERR5
 40
0.0
  9
$WORLDVIEW
 70
     1
  9
$SHADEDGE
 70
     3
  9
$SHADEDIF
 70
    70
  9
$TILEMODE
 70
     1
  9
$MAXACTVP
 70
    64
  9
$PINSBASE
 10
0.0
 20
0.0
 30
0.0
  9
$PLIMCHECK
 70
     0
  9
$PEXTMIN
 10
1.000000000000000E+20
 20
1.000000000000000E+20
 30
1.000000000000000E+20
  9
$PEXTMAX
 10
-1.000000000000000E+20
 20
-1.000000000000000E+20
 30
-1.000000000000000E+20
  9
$PLIMMIN
 10
0.0
 20
0.0
  9
$PLIMMAX
 10
12.0
 20
9.0
  9
$UNITMODE
 70
     0
  9
$VISRETAIN
 70
     1
  9
$PLINEGEN
 70
     0
  9
$PSLTSCALE
 70
     1
  9
$TREEDEPTH
 70
  3020
  9
$PICKSTYLE
 70
     1
  9
$CMLSTYLE
  2
STANDARD
  9
$CMLJUST
 70
     0
  9
$CMLSCALE
 40
1.0
  9
$PROXYGRAPHICS
 70
     1
  9
$MEASUREMENT
 70
     0
  0
ENDSEC
  0
SECTION
  2
CLASSES
  0
CLASS
  1
ACDBDICTIONARYWDFLT
  2
AcDbDictionaryWithDefault
  3
AutoCAD 2000
 90
        0
280
     0
281
     0
  0
CLASS
  1
ACDBPLACEHOLDER
  2
AcDbPlaceHolder
  3
AutoCAD 2000
 90
        0
280
     0
281
     0
  0
CLASS
  1
LAYOUT
  2
AcDbLayout
  3
AutoCAD 2000
 90
        0
280
     0
281
     0
  0
CLASS
  1
LONG_TRANSACTION
  2
AcDbLongTransaction
  3
AutoCAD 2000
 90
        0
280
     0
281
     0
  0
CLASS
  1
LWPOLYLINE
  2
AcDbPolyline
  3
AutoCAD 2000
 90
        0
280
     0
281
     1
  0
CLASS
  1
HATCH
  2
AcDbHatch
  3
AutoCAD 2000
 90
        0
280
     0
281
     1
  0
CLASS
  1
XRECORD
  2
AcDbXrecord
  3
AutoCAD 2000
 90
        0
280
     0
281
     0
  0
CLASS
  1
LONG_TRANSACTION
  2
AcDbLongTransaction
  3
AutoCAD 2000
 90
        0
280
     0
281
     0
  0
CLASS
  1
LWPOLYLINE
  2
AcDbPolyline
  3
AutoCAD 2000
 90
        0
280
     0
281
     1
  0
CLASS
  1
HATCH
  2
AcDbHatch
  3
AutoCAD 2000
 90
        0
280
     0
281
     1
  0
CLASS
  1
XRECORD
  2
AcDbXrecord
  3
AutoCAD 2000
 90
        0
280
     0
281
     0
  0
ENDSEC
  0
SECTION
  2
TABLES
  0
TABLE
  2
VPORT
  5
8
330
0
100
AcDbSymbolTable
 70
     2
  0
VPORT
  5
182C2
330
8
100
AcDbSymbolTableRecord
100
AcDbViewportTableRecord
  2
*ACTIVE
 70
     0
 10
0.0
 20
0.0
 11
1.0
 21
1.0
 12
-269.1271772407816
 22
-148.4522573263948
 13
0.0
 23
0.0
 14
50.0
 24
50.0
 15
100.0
 25
100.0
 16
0.0
 26
0.0
 36
1.0
 17
0.0
 27
0.0
 37
0.0
 40
873.8616060183405
 41
1.947815533980582
 42
50.0
 43
0.0
 44
0.0
 50
0.0
 51
0.0
 71
     0
 72
   500
 73
     1
 74
     0
 75
     0
 76
     0
 77
     0
 78
     0
  0
ENDTAB
  0
TABLE
  2
LTYPE
  5
5
330
0
100
AcDbSymbolTable
 70
    16
  0
LTYPE
  5
13
330
5
100
AcDbSymbolTableRecord
100
AcDbLinetypeTableRecord
  2
BYBLOCK
 70
     0
  3

 72
    65
 73
     0
 40
0.0
  0
LTYPE
  5
14
330
5
100
AcDbSymbolTableRecord
100
AcDbLinetypeTableRecord
  2
BYLAYER
 70
     0
  3

 72
    65
 73
     0
 40
0.0
  0
LTYPE
  5
15
330
5
100
AcDbSymbolTableRecord
100
AcDbLinetypeTableRecord
  2
CONTINUOUS
 70
     0
  3
実線
 72
    65
 73
     0
 40
0.0
  0
LTYPE
  5
23
330
5
100
AcDbSymbolTableRecord
100
AcDbLinetypeTableRecord
  2
DASHDOT
 70
     0
  3
____ _ ____ _ ____ _ ____ _ ____ _ ____ _ ____
 72
    65
 73
     4
 40
5.5
 49
4.0
 74
     0
 49
-0.6
 74
     0
 49
0.3
 74
     0
 49
-0.6
 74
     0
  0
ENDTAB
  0
TABLE
  2
LAYER
  5
2
330
0
100
AcDbSymbolTable
 70
    17
  0
LAYER
  5
10
330
2
100
AcDbSymbolTableRecord
100
AcDbLayerTableRecord
  2
0
 70
     0
 62
     7
  6
CONTINUOUS
  0
LAYER
  5
22
330
2
100
AcDbSymbolTableRecord
100
AcDbLayerTableRecord
  2
SIZE
 70
     0
 62
    30
  6
CONTINUOUS
  0
LAYER
  5
31
330
2
100
AcDbSymbolTableRecord
100
AcDbLayerTableRecord
  2
DETAIL
 70
     0
 62
     5
  6
CONTINUOUS
  0
LAYER
  5
32
330
2
100
AcDbSymbolTableRecord
100
AcDbLayerTableRecord
  2
OUTLINE
 70
     0
 62
     3
  6
CONTINUOUS
  0
LAYER
  5
34
330
2
100
AcDbSymbolTableRecord
100
AcDbLayerTableRecord
  2
NOTE
 70
     0
 62
     4
  6
CONTINUOUS
  0
LAYER
  5
35
330
2
100
AcDbSymbolTableRecord
100
AcDbLayerTableRecord
  2
ARRANGE
 70
     0
 62
     1
  6
CONTINUOUS
  0
LAYER
  5
37
330
2
100
AcDbSymbolTableRecord
100
AcDbLayerTableRecord
  2
ETC
 70
     0
 62
    61
  6
CONTINUOUS
  0
LAYER
  5
3A
330
2
100
AcDbSymbolTableRecord
100
AcDbLayerTableRecord
  2
DEFPOINTS
 70
     0
 62
     7
  6
CONTINUOUS
  0
LAYER
  5
182B2
330
2
100
AcDbSymbolTableRecord
100
AcDbLayerTableRecord
  2
BASIS
 70
     0
 62
     6
  6
DASHDOT
  0
LAYER
  5
182B3
330
2
100
AcDbSymbolTableRecord
100
AcDbLayerTableRecord
  2
FIX
 70
     0
 62
    11
  6
CONTINUOUS
  0
LAYER
  5
182B4
330
2
100
AcDbSymbolTableRecord
100
AcDbLayerTableRecord
  2
SERVICESPACE
 70
     0
 62
     2
  6
DASHDOT
  0
LAYER
  5
182B5
330
2
100
AcDbSymbolTableRecord
100
AcDbLayerTableRecord
  2
SYMBOLLINE
 70
     0
 62
    15
  6
CONTINUOUS
  0
ENDTAB
  0
TABLE
  2
STYLE
  5
3
330
0
100
AcDbSymbolTable
 70
     2
  0
STYLE
  5
11
330
3
100
AcDbSymbolTableRecord
100
AcDbTextStyleTableRecord
  2
STANDARD
 70
     0
 40
0.0
 41
0.9
 50
0.0
 71
     0
 42
64.0
  3
SIMPLEX
  4
BIGFONT
  0
ENDTAB
  0
TABLE
  2
VIEW
  5
6
330
0
100
AcDbSymbolTable
 70
     1
  0
VIEW
  5
3C
330
6
100
AcDbSymbolTableRecord
100
AcDbViewTableRecord
  2
ALL
 70
     0
 40
4282.62
 10
0.0
 20
41.30990399999999
 41
5940.0
 11
0.0
 21
0.0
 31
1.0
 12
0.0
 22
0.0
 32
0.0
 42
50.0
 43
0.0
 44
0.0
 50
0.0
 71
     0
  0
ENDTAB
  0
TABLE
  2
UCS
  5
7
330
0
100
AcDbSymbolTable
 70
     0
  0
ENDTAB
  0
TABLE
  2
APPID
  5
9
330
0
100
AcDbSymbolTable
 70
     1
  0
APPID
  5
12
330
9
100
AcDbSymbolTableRecord
100
AcDbRegAppTableRecord
  2
ACAD
 70
     0
  0
ENDTAB
  0
TABLE
  2
DIMSTYLE
  5
A
330
0
100
AcDbSymbolTable
 70
     1
  0
DIMSTYLE
105
213
102
{ACAD_REACTORS
330
36DB
330
36DC
330
36DD
330
36DE
330
36DF
330
36E0
330
36E1
330
36E2
330
36E3
330
36E4
330
36E5
330
36E6
330
36E7
330
36E8
330
36E9
330
36EA
330
36EB
330
36EC
330
3771
330
3772
330
3773
330
3790
330
3791
330
3796
330
3797
330
379A
330
37A3
330
37A7
330
37A8
330
37B8
330
37BA
330
3842
330
384C
330
384D
330
384F
330
3856
330
3857
330
3860
330
3864
102
}
330
A
100
AcDbSymbolTableRecord
100
AcDbDimStyleTableRecord
  2
STANDARD
 70
     0
  3

  4

  5

  6

  7

 40
1.0
 41
0.18
 42
0.0625
 43
0.38
 44
0.18
 45
0.0
 46
0.0
 47
0.0
 48
0.0
140
0.18
141
0.09
142
0.0
143
25.4
144
1.0
145
0.0
146
1.0
147
0.09
 71
     0
 72
     0
 73
     1
 74
     1
 75
     0
 76
     0
 77
     0
 78
     0
170
     0
171
     2
172
     0
173
     0
174
     0
175
     0
176
     0
177
     0
178
     0
270
     2
271
     4
272
     4
273
     2
274
     2
340
11
275
     0
280
     0
281
     0
282
     0
283
     1
284
     0
285
     0
286
     0
287
     3
288
     0
  0
ENDTAB
  0
TABLE
  2
BLOCK_RECORD
  5
1
330
0
100
AcDbSymbolTable
 70
    83
  0
BLOCK_RECORD
  5
1E
102
{ACAD_XDICTIONARY
360
182A9
102
}
330
1
100
AcDbSymbolTableRecord
100
AcDbBlockTableRecord
  2
*MODEL_SPACE
  0
BLOCK_RECORD
  5
1A
102
{ACAD_XDICTIONARY
360
182A7
102
}
330
1
100
AcDbSymbolTableRecord
100
AcDbBlockTableRecord
  2
*PAPER_SPACE
  0
BLOCK_RECORD
  5
46
330
1
100
AcDbSymbolTableRecord
100
AcDbBlockTableRecord
  2
_ORIGIN
  0
ENDTAB
  0
ENDSEC
  0
SECTION
  2
BLOCKS
  0
BLOCK
  5
1F
330
1E
100
AcDbEntity
  8
0
100
AcDbBlockBegin
  2
*MODEL_SPACE
 70
     0
 10
0.0
 20
0.0
 30
0.0
  3
*MODEL_SPACE
  1

  0
ENDBLK
  5
20
330
1E
100
AcDbEntity
  8
0
100
AcDbBlockEnd
  0
BLOCK
  5
1B
330
1A
100
AcDbEntity
 67
     1
  8
0
100
AcDbBlockBegin
  2
*PAPER_SPACE
 70
     0
 10
0.0
 20
0.0
 30
0.0
  3
*PAPER_SPACE
  1

  0
ENDBLK
  5
1C
330
1A
100
AcDbEntity
 67
     1
  8
0
100
AcDbBlockEnd
  0
BLOCK
  5
47
330
46
100
AcDbEntity
  8
0
100
AcDbBlockBegin
  2
_ORIGIN
 70
     0
 10
0.0
 20
0.0
 30
0.0
  3
_ORIGIN
  1

  0
CIRCLE
  5
48
330
46
100
AcDbEntity
  8
0
  6
BYBLOCK
 62
     0
100
AcDbCircle
 10
0.0
 20
0.0
 30
0.0
 40
0.5
  0
LINE
  5
49
330
46
100
AcDbEntity
  8
0
  6
BYBLOCK
 62
     0
100
AcDbLine
 10
0.0
 20
0.0
 30
0.0
 11
-1.0
 21
0.0
 31
0.0
  0
ENDBLK
  5
4A
330
46
100
AcDbEntity
  8
0
100
AcDbBlockEnd
  0
ENDSEC
  0
SECTION
  2
ENTITIES
  0
LINE
  5
1643C
330
1E
100
AcDbEntity
  8
DETAIL
  6
CONTINUOUS
100
AcDbLine
 10
0.0
 20
-0.1997799905302597
 30
0.0
 11
-0.0000000026611815
 21
-356.8092069923195
 31
0.0
  0
LINE
  5
1643D
330
1E
100
AcDbEntity
  8
DETAIL
  6
CONTINUOUS
100
AcDbLine
 10
4.999999999899954
 20
-13.475686944691
 30
0.0
 11
4.999999997280609
 21
-364.8347799905313
 31
0.0
  0
LINE
  5
17598
330
1E
100
AcDbEntity
  8
DETAIL
  6
CONTINUOUS
100
AcDbLine
 10
272.0280197598804
 20
-30.4400078218614
 30
0.0
 11
272.0279750086738
 21
-288.3596466629787
 31
0.0
  0
LINE
  5
17599
330
1E
100
AcDbEntity
  8
DETAIL
  6
CONTINUOUS
100
AcDbLine
 10
265.0352780645553
 20
-24.53310192298886
 30
0.0
 11
265.0352302896425
 21
-299.8795892646739
 31
0.0
  0
LINE
  5
1759A
330
1E
100
AcDbEntity
  8
DETAIL
  6
CONTINUOUS
100
AcDbLine
 10
114.6854617038407
 20
-365.0407821585858
 30
0.0
 11
114.6855250414591
 21
0.0000000000009097
 31
0.0
  0
LINE
  5
1759B
330
1E
100
AcDbEntity
  8
DETAIL
  6
CONTINUOUS
100
AcDbLine
 10
113.1468603249412
 20
-364.8347996224611
 30
0.0
 11
113.1870240014613
 21
-5.993999629423343
 31
0.0
  0
LINE
  5
1759C
330
1E
100
AcDbEntity
  8
DETAIL
  6
CONTINUOUS
100
AcDbLine
 10
82.1604456794339
 20
-5.993994246053262
 30
0.0
 11
82.16040629735289
 21
-232.9691328657263
 31
0.0
  0
LINE
  5
1759D
330
1E
100
AcDbEntity
  8
DETAIL
  6
CONTINUOUS
100
AcDbLine
 10
77.97043310255684
 20
-5.993993519050491
 30
0.0
 11
77.97039373235747
 21
-232.9006464291623
 31
0.0
  0
LINE
  5
1759E
330
1E
100
AcDbEntity
  8
DETAIL
  6
CONTINUOUS
100
AcDbLine
 10
7.293197000939471
 20
-8.641244800717686
 30
0.0
 11
7.293019396751332
 21
-231.745413255311
 31
0.0
  0
LINE
  5
1759F
330
1E
100
AcDbEntity
  8
DETAIL
  6
CONTINUOUS
100
AcDbLine
 10
93.78006107618784
 20
-5.993996262152903
 30
0.0
 11
93.77999981965695
 21
-359.0405962621471
 31
0.0
  0
LINE
  5
175A0
330
1E
100
AcDbEntity
  8
DETAIL
  6
CONTINUOUS
100
AcDbLine
 10
92.73248935952144
 20
-359.0405960803955
 30
0.0
 11
92.73259084471645
 21
-5.993996083339878
 31
0.0
  0
LINE
  5
175A1
330
1E
100
AcDbEntity
  8
DETAIL
  6
CONTINUOUS
100
AcDbLine
 10
5.000000754775101
 20
-13.4757340824035
 30
0.0
 11
4.999970272911014
 21
-364.8347808580738
 31
0.0
  0
LINE
  5
175A2
330
1E
100
AcDbEntity
  8
DETAIL
  6
CONTINUOUS
100
AcDbLine
 10
-0.000000000163709
 20
-22.17777999053123
 30
0.0
 11
-0.000029030836231
 21
-356.8092122192001
 31
0.0
  0
LINE
  5
175A3
330
1E
100
AcDbEntity
  8
DETAIL
  6
CONTINUOUS
100
AcDbLine
 10
114.2034560604515
 20
-7.229669768027632
 30
0.0
 11
114.2033950023797
 21
-359.3041666379895
 31
0.0
  0
LINE
  5
175A4
330
1E
100
AcDbEntity
  8
DETAIL
  6
CONTINUOUS
100
AcDbLine
 10
264.5531955683836
 20
-34.62900214730415
 30
0.0
 11
264.5531648329742
 21
-286.9417645266084
 31
0.0
  0
LINE
  5
175A5
330
1E
100
AcDbEntity
  8
DETAIL
  6
CONTINUOUS
100
AcDbLine
 10
284.597468654072
 20
-29.60976419300823
 30
0.0
 11
284.5974257449197
 21
-276.9559415054454
 31
0.0
  0
LINE
  5
175A6
330
1E
100
AcDbEntity
  8
DETAIL
  6
CONTINUOUS
100
AcDbLine
 10
285.5603060674257
 20
-29.64338738364222
 30
0.0
 11
285.5548193921131
 21
-276.955941671561
 31
0.0
  0
LINE
  5
175A7
330
1E
100
AcDbEntity
  8
DETAIL
  6
CONTINUOUS
100
AcDbLine
 10
273.5264817309434
 20
-249.6163630335895
 30
0.0
 11
273.5265199710046
 21
-29.22315622274799
 31
0.0
  0
LINE
  5
175A8
330
1E
100
AcDbEntity
  8
DETAIL
  6
CONTINUOUS
100
AcDbLine
 10
299.9999992247249
 20
-31.1123581803231
 30
0.0
 11
299.9999788088353
 21
-266.4426797784853
 31
0.0
  0
SPLINE
  5
175A9
330
1E
100
AcDbEntity
  8
DETAIL
  6
CONTINUOUS
100
AcDbSpline
 70
     0
 71
     3
 72
    11
 73
     7
 74
     5
 42
0.0000000001
 43
0.0000000001
 44
0.00000001
 40
0.0
 40
0.0
 40
0.0
 40
0.0
 40
2.970526139265718
 40
5.941052278545049
 40
13.36044691111396
 40
23.73430932762119
 40
23.73430932762119
 40
23.73430932762119
 40
23.73430932762119
 10
299.9999788088353
 20
-266.4426797784853
 30
0.0
 10
299.4098819032672
 20
-267.2378105379912
 30
0.0
 10
298.2296881004857
 20
-268.8280720632088
 30
0.0
 10
295.5756268760632
 20
-272.4043080238843
 30
0.0
 10
291.4508883136816
 20
-277.9622200860914
 30
0.0
 10
287.9162466275619
 20
-282.7250013670378
 30
0.0
 10
285.8554723417146
 20
-285.5018081966682
 30
0.0
 11
299.9999788088353
 21
-266.4426797784853
 31
0.0
 11
298.2296881003676
 21
-268.8280720631154
 31
0.0
 11
296.4593974262498
 21
-271.213464373255
 31
0.0
 11
292.0377952003181
 21
-277.1713877085649
 31
0.0
 11
285.8554723417146
 21
-285.5018081966682
 31
0.0
  0
ARC
  5
175AA
330
1E
100
AcDbEntity
  8
DETAIL
  6
CONTINUOUS
100
AcDbCircle
 10
-691.4514404509461
 20
448.4901267361101
 30
0.0
 40
1222.61904870681
100
AcDbArc
 50
323.0345891301857
 51
324.1627018834273
  0
LINE
  5
175AB
330
1E
100
AcDbEntity
  8
DETAIL
  6
CONTINUOUS
100
AcDbLine
 10
82.16040625686581
 20
-233.2024782971474
 30
0.0
 11
82.16038442290301
 21
-359.0405942460473
 31
0.0
  0
LINE
  5
175AC
330
1E
100
AcDbEntity
  8
DETAIL
  6
CONTINUOUS
100
AcDbLine
 10
77.97039369317282
 20
-233.1264976066276
 30
0.0
 11
77.97037084068143
 21
-364.8347935190459
 31
0.0
  0
LINE
  5
175AD
330
1E
100
AcDbEntity
  8
DETAIL
  6
CONTINUOUS
100
AcDbLine
 10
7.292976439901393
 20
-280.1108624509951
 30
0.0
 11
7.292984811219866
 21
-231.8635024786353
 31
0.0
  0
LINE
  5
175AE
330
1E
100
AcDbEntity
  8
DETAIL
  6
CONTINUOUS
100
AcDbLine
 10
92.73248935952144
 20
-359.0405960803955
 30
0.0
 11
92.73251847356005
 21
-233.40903207685
 31
0.0
  0
LINE
  5
175AF
330
1E
100
AcDbEntity
  8
DETAIL
  6
CONTINUOUS
100
AcDbLine
 10
93.77999981965695
 20
-359.0405962621471
 30
0.0
 11
93.78002161418772
 21
-233.4297461542728
 31
0.0
  0
ARC
  5
175B0
330
1E
100
AcDbEntity
  8
DETAIL
  6
CONTINUOUS
100
AcDbCircle
 10
120.8500533371079
 20
-180.068851605284
 30
0.0
 40
179.0876985442594
100
AcDbArc
 50
268.0273641635314
 51
323.3615850542713
  0
ARC
  5
175B1
330
1E
100
AcDbEntity
  8
DETAIL
  6
CONTINUOUS
100
AcDbCircle
 10
121.0602578272228
 20
-173.7142070916578
 30
0.0
 40
191.4327462908466
100
AcDbArc
 50
268.091672092653
 51
318.7718904678261
  0
ARC
  5
175B3
330
1E
100
AcDbEntity
  8
DETAIL
  6
CONTINUOUS
100
AcDbCircle
 10
266.0341678997465
 20
-287.6599813797657
 30
0.0
 40
0.9989354918021067
100
AcDbArc
 50
102.5252622049864
 51
179.9964546158478
  0
LINE
  5
175B4
330
1E
100
AcDbEntity
  8
DETAIL
  6
CONTINUOUS
100
AcDbLine
 10
265.8175287131125
 20
-286.6848200702396
 30
0.0
 11
272.0279755387272
 21
-285.3047219064373
 31
0.0
  0
LINE
  5
175B5
330
1E
100
AcDbEntity
  8
DETAIL
  6
CONTINUOUS
100
AcDbLine
 10
265.9993684090368
 20
-281.5663027955896
 30
0.0
 11
265.8175287131125
 21
-286.6848200702396
 31
0.0
  0
LINE
  5
175B6
330
1E
100
AcDbEntity
  8
DETAIL
  6
CONTINUOUS
100
AcDbLine
 10
265.9993684090368
 20
-281.5663027955896
 30
0.0
 11
265.0352334671296
 21
-281.566441615867
 31
0.0
  0
LINE
  5
175B7
330
1E
100
AcDbEntity
  8
DETAIL
  6
CONTINUOUS
100
AcDbLine
 10
272.0279764198203
 20
-280.2266132241965
 30
0.0
 11
265.9993684090368
 21
-281.5663027955896
 31
0.0
  0
LINE
  5
175B8
330
1E
100
AcDbEntity
  8
DETAIL
  6
CONTINUOUS
100
AcDbLine
 10
285.5548193921131
 20
-276.955941671561
 30
0.0
 11
284.5974257449197
 21
-276.9559415054818
 31
0.0
  0
ARC
  5
175B9
330
1E
100
AcDbEntity
  8
DETAIL
  6
CONTINUOUS
100
AcDbCircle
 10
272.996854348461
 20
-288.3856156567034
 30
0.0
 40
0.9692273023979907
100
AcDbArc
 50
178.4646616750146
 51
269.7195520403869
  0
LINE
  5
175BA
330
1E
100
AcDbEntity
  8
DETAIL
  6
CONTINUOUS
100
AcDbLine
 10
273.526474832215
 20
-289.3765630335891
 30
0.0
 11
273.5264747975524
 21
-289.5763630335886
 31
0.0
  0
LINE
  5
175BB
330
1E
100
AcDbEntity
  8
DETAIL
  6
CONTINUOUS
100
AcDbLine
 10
272.9921102514198
 20
-289.3548313485153
 30
0.0
 11
273.526474832215
 21
-289.3765630335891
 31
0.0
  0
LINE
  5
175BC
330
1E
100
AcDbEntity
  8
DETAIL
  6
CONTINUOUS
100
AcDbLine
 10
285.5548193921131
 20
-276.955941671561
 30
0.0
 11
285.8554723417146
 21
-285.5018081966682
 31
0.0
  0
LINE
  5
175BD
330
1E
100
AcDbEntity
  8
DETAIL
  6
CONTINUOUS
100
AcDbLine
 10
284.5974257449197
 20
-276.9559415054454
 30
0.0
 11
285.0733161172573
 21
-286.4184016022109
 31
0.0
  0
ARC
  5
175BE
330
1E
100
AcDbEntity
  8
DETAIL
  6
CONTINUOUS
100
AcDbCircle
 10
284.2079420795379
 20
-286.3343488492399
 30
0.0
 40
0.8694464275878095
100
AcDbArc
 50
296.3936127843559
 51
354.4523308625624
  0
ARC
  5
175BF
330
1E
100
AcDbEntity
  8
DETAIL
  6
CONTINUOUS
100
AcDbCircle
 10
284.3441981965588
 20
-285.560321478898
 30
0.0
 40
1.574794409012918
100
AcDbArc
 50
278.2353416148604
 51
313.0675056643556
  0
LINE
  5
175C0
330
1E
100
AcDbEntity
  8
DETAIL
  6
CONTINUOUS
100
AcDbLine
 10
264.5531648329742
 20
-286.9417645266084
 30
0.0
 11
265.0352325344611
 21
-286.9417646103711
 31
0.0
  0
LINE
  5
175C1
330
1E
100
AcDbEntity
  8
DETAIL
  6
CONTINUOUS
100
AcDbLine
 10
284.569770851911
 20
-287.1188767093981
 30
0.0
 11
273.5264747975524
 21
-289.5763630335886
 31
0.0
  0
LINE
  5
175C2
330
1E
100
AcDbEntity
  8
DETAIL
  6
CONTINUOUS
100
AcDbLine
 10
113.1475088475563
 20
-359.0405996225717
 30
0.0
 11
5.325614278739521
 21
-359.0405809145731
 31
0.0
  0
LINE
  5
175C3
330
1E
100
AcDbEntity
  8
DETAIL
  6
CONTINUOUS
100
AcDbLine
 10
113.1468603249412
 20
-364.8347996224611
 30
0.0
 11
4.999970272911014
 21
-364.8347808580738
 31
0.0
  0
LINE
  5
175C4
330
1E
100
AcDbEntity
  8
DETAIL
  6
CONTINUOUS
100
AcDbLine
 10
60.23996309008362
 20
-357.0513092476021
 30
0.0
 11
5.916052658620174
 21
-357.0425596297454
 31
0.0
  0
LINE
  5
175C5
330
1E
100
AcDbEntity
  8
DETAIL
  6
CONTINUOUS
100
AcDbLine
 10
60.23994803300957
 20
-356.0435904426686
 30
0.0
 11
6.211262368280586
 21
-356.0435810682409
 31
0.0
  0
LINE
  5
175C6
330
1E
100
AcDbEntity
  8
DETAIL
  6
CONTINUOUS
100
AcDbLine
 10
60.23997453018456
 20
-291.1173092476028
 30
0.0
 11
7.292974530191712
 21
-291.1173000608686
 31
0.0
  0
LINE
  5
175C7
330
1E
100
AcDbEntity
  8
DETAIL
  6
CONTINUOUS
100
AcDbLine
 10
60.24006488713713
 20
-281.1185904426784
 30
0.0
 11
7.297335335502793
 21
-281.1185812566827
 31
0.0
  0
LINE
  5
175C8
330
1E
100
AcDbEntity
  8
DETAIL
  6
CONTINUOUS
100
AcDbLine
 10
60.2400508646424
 20
-290.1095904426865
 30
0.0
 11
7.297333775488366
 21
-290.1095812566836
 31
0.0
  0
LINE
  5
175C9
330
1E
100
AcDbEntity
  8
DETAIL
  6
CONTINUOUS
100
AcDbLine
 10
7.292976439901393
 20
-280.1108624509951
 30
0.0
 11
60.23997643989059
 21
-280.110871637741
 31
0.0
  0
LINE
  5
175CA
330
1E
100
AcDbEntity
  8
DETAIL
  6
CONTINUOUS
100
AcDbLine
 10
114.6854619193909
 20
-363.7984687355373
 30
0.0
 11
113.146977683642
 21
-363.7862628822495
 31
0.0
  0
ARC
  5
175CB
330
1E
100
AcDbEntity
  8
DETAIL
  6
CONTINUOUS
100
AcDbCircle
 10
114.1859612942679
 20
-363.7984692717144
 30
0.0
 40
0.4995006251256028
100
AcDbArc
 50
0.0000615029327198
 51
89.49991844105696
  0
LINE
  5
175CC
330
1E
100
AcDbEntity
  8
DETAIL
  6
CONTINUOUS
100
AcDbLine
 10
114.2033950023177
 20
-359.3041666379884
 30
0.0
 11
114.1903209152114
 21
-363.2989876722476
 31
0.0
  0
LINE
  5
175CD
330
1E
100
AcDbEntity
  8
DETAIL
  6
CONTINUOUS
100
AcDbLine
 10
114.1903209152114
 20
-363.2989876722476
 30
0.0
 11
113.1470332415591
 21
-363.2898828576188
 31
0.0
  0
ARC
  5
175CF
330
1E
100
AcDbEntity
  8
DETAIL
  6
CONTINUOUS
100
AcDbCircle
 10
60.23560663377431
 20
-345.0589507030463
 30
0.0
 40
10.98464059753726
100
AcDbArc
 50
270.0226446971283
 51
0.0227331607602804
  0
ARC
  5
175D0
330
1E
100
AcDbEntity
  8
DETAIL
  6
CONTINUOUS
100
AcDbCircle
 10
60.14089107442122
 20
-344.9555163110963
 30
0.0
 40
12.09619866020372
100
AcDbArc
 50
270.469277331701
 51
359.5307027856946
  0
ARC
  5
175D1
330
1E
100
AcDbEntity
  8
DETAIL
  6
CONTINUOUS
100
AcDbCircle
 10
60.23997435817728
 20
-292.1075904424851
 30
0.0
 40
10.98900000018147
100
AcDbArc
 50
359.9999900577273
 51
89.99952810271183
  0
ARC
  5
175D2
330
1E
100
AcDbEntity
  8
DETAIL
  6
CONTINUOUS
100
AcDbCircle
 10
60.13994814943725
 20
-292.1988282861411
 30
0.0
 40
12.08837051021266
100
AcDbArc
 50
0.4324382522252255
 51
89.52588612634894
  0
LINE
  5
175D3
330
1E
100
AcDbEntity
  8
DETAIL
  6
CONTINUOUS
100
AcDbLine
 10
71.22025465858678
 20
-297.26492362737
 30
0.0
 11
71.22897435836057
 21
-292.1075923493543
 31
0.0
  0
LINE
  5
175D4
330
1E
100
AcDbEntity
  8
DETAIL
  6
CONTINUOUS
100
AcDbLine
 10
72.22797435836764
 20
-292.1075925226986
 30
0.0
 11
72.2279726250199
 21
-302.0975925226985
 31
0.0
  0
ARC
  5
175D5
330
1E
100
AcDbEntity
  8
DETAIL
  6
CONTINUOUS
100
AcDbCircle
 10
60.3371754942491
 20
-302.0003876071641
 30
0.0
 40
10.88351242052402
100
AcDbArc
 50
359.4882630513032
 51
90.51171706609553
  0
ARC
  5
175D6
330
1E
100
AcDbEntity
  8
DETAIL
  6
CONTINUOUS
100
AcDbCircle
 10
60.14669835371022
 20
-302.1908640888014
 30
0.0
 40
12.0816343101258
100
AcDbArc
 50
0.4423342103423027
 51
89.55728190659341
  0
LINE
  5
175D7
330
1E
100
AcDbEntity
  8
DETAIL
  6
CONTINUOUS
100
AcDbLine
 10
71.22024636667993
 20
-345.054592347843
 30
0.0
 11
71.22025382007631
 21
-302.0975923478416
 31
0.0
  0
LINE
  5
175D8
330
1E
100
AcDbEntity
  8
DETAIL
  6
CONTINUOUS
100
AcDbLine
 10
72.2279726250199
 20
-302.0975925226985
 30
0.0
 11
72.23668397654183
 21
-345.0545925242012
 31
0.0
  0
LINE
  5
175D9
330
1E
100
AcDbEntity
  8
DETAIL
  6
CONTINUOUS
100
AcDbLine
 10
4.999970679982651
 20
-360.1425466128721
 30
0.0
 11
7.292963900057657
 21
-352.3831437424023
 31
0.0
  0
LINE
  5
175DA
330
1E
100
AcDbEntity
  8
DETAIL
  6
CONTINUOUS
100
AcDbLine
 10
7.292963900057657
 20
-352.3831437424023
 30
0.0
 11
7.292976439901393
 21
-280.1108624509951
 31
0.0
  0
LINE
  5
175DB
330
1E
100
AcDbEntity
  8
DETAIL
  6
CONTINUOUS
100
AcDbLine
 10
-0.000029030836231
 20
-356.8092122192001
 30
0.0
 11
4.999970679982651
 21
-360.1425466128721
 31
0.0
  0
ARC
  5
175DC
330
1E
100
AcDbEntity
  8
DETAIL
  6
CONTINUOUS
100
AcDbCircle
 10
298.5016612784966
 20
-266.442739824015
 30
0.0
 40
1.498317531543265
100
AcDbArc
 50
323.4207209915429
 51
0.0022961457567933
  0
LINE
  5
17601
330
1E
100
AcDbEntity
  8
DETAIL
  6
CONTINUOUS
100
AcDbLine
 10
285.5603496939329
 20
-82.54671950033843
 30
0.0
 11
284.5974594689723
 21
-82.54671933327063
 31
0.0
  0
LINE
  5
17604
330
1E
100
AcDbEntity
  8
DETAIL
  6
CONTINUOUS
100
AcDbLine
 10
7.31161727210383
 20
-231.8451881732708
 30
0.0
 11
7.292984811219866
 21
-231.8635024786353
 31
0.0
  0
ARC
  5
17605
330
1E
100
AcDbEntity
  8
DETAIL
  6
CONTINUOUS
100
AcDbCircle
 10
119.6533849312254
 20
-386.4938142742857
 30
0.0
 40
380.532260308953
100
AcDbArc
 50
67.61787404315469
 51
90.74801949822449
  0
ARC
  5
17606
330
1E
100
AcDbEntity
  8
DETAIL
  6
CONTINUOUS
100
AcDbCircle
 10
119.4376918471497
 20
-450.0474029684347
 30
0.0
 40
450.0724919476658
100
AcDbArc
 50
71.17088704871803
 51
90.60497845531369
  0
LINE
  5
17607
330
1E
100
AcDbEntity
  8
DETAIL
  6
CONTINUOUS
100
AcDbLine
 10
268.9703731847257
 20
-32.24271774047247
 30
0.0
 11
272.028018910063
 21
-35.33786789248551
 31
0.0
  0
LINE
  5
17608
330
1E
100
AcDbEntity
  8
DETAIL
  6
CONTINUOUS
100
AcDbLine
 10
265.0352776532125
 20
-26.90382996750759
 30
0.0
 11
268.9703731847257
 21
-32.24271774047247
 31
0.0
  0
LINE
  5
17609
330
1E
100
AcDbEntity
  8
DETAIL
  6
CONTINUOUS
100
AcDbLine
 10
269.76582141166
 20
-31.64999690526201
 30
0.0
 11
265.0352779433087
 21
-25.23189587557862
 31
0.0
  0
LINE
  5
1760A
330
1E
100
AcDbEntity
  8
DETAIL
  6
CONTINUOUS
100
AcDbLine
 10
272.0280192529679
 20
-33.36156510064302
 30
0.0
 11
269.76582141166
 21
-31.64999690526201
 31
0.0
  0
SPLINE
  5
1760B
330
1E
100
AcDbEntity
  8
DETAIL
  6
CONTINUOUS
100
AcDbSpline
210
0.0
220
0.0
230
1.0
 70
    24
 71
     3
 72
     9
 73
     5
 74
     3
 42
0.0000000001
 43
0.0000000001
 44
0.00000001
 40
0.0
 40
0.0
 40
0.0
 40
0.0
 40
0.2673451852404793
 40
0.5346903704808783
 40
0.5346903704808783
 40
0.5346903704808783
 40
0.5346903704808783
 10
273.5265199363348
 20
-29.42295622274741
 30
0.0
 10
273.4374591605362
 20
-29.42606627809838
 30
0.0
 10
273.2593376089389
 20
-29.43228638880007
 30
0.0
 10
273.0812160573416
 20
-29.43850649950134
 30
0.0
 10
272.992155281543
 20
-29.44161655485186
 30
0.0
 11
273.5265199363348
 21
-29.42295622274741
 31
0.0
 11
273.2593376089389
 21
-29.43228638880009
 31
0.0
 11
272.992155281543
 21
-29.44161655485186
 31
0.0
  0
ARC
  5
1760C
330
1E
100
AcDbEntity
  8
DETAIL
  6
CONTINUOUS
100
AcDbCircle
 10
272.9763841110215
 20
-30.39110970317778
 30
0.0
 40
0.9496241196077983
100
AcDbArc
 50
89.04839921980451
 51
182.9515840171898
  0
LINE
  5
1760D
330
1E
100
AcDbEntity
  8
DETAIL
  6
CONTINUOUS
100
AcDbLine
 10
264.5531955683873
 20
-34.62900214730506
 30
0.0
 11
265.035276312832
 21
-34.62900223094948
 31
0.0
  0
LINE
  5
1760E
330
1E
100
AcDbEntity
  8
DETAIL
  6
CONTINUOUS
100
AcDbLine
 10
285.5602840204155
 20
-30.63715896384929
 30
0.0
 11
299.9999992247211
 21
-31.11235820001638
 31
0.0
  0
ARC
  5
1760F
330
1E
100
AcDbEntity
  8
DETAIL
  6
CONTINUOUS
100
AcDbCircle
 10
264.5357780885241
 20
-24.53310181189226
 30
0.0
 40
0.4994999760291364
100
AcDbArc
 50
359.9999872564779
 51
71.15921994965531
  0
LINE
  5
17610
330
1E
100
AcDbEntity
  8
DETAIL
  6
CONTINUOUS
100
AcDbLine
 10
264.6970863048445
 20
-24.06036521990881
 30
0.0
 11
264.5531955683836
 21
-34.62900214730325
 31
0.0
  0
LINE
  5
17611
330
1E
100
AcDbEntity
  8
DETAIL
  6
CONTINUOUS
100
AcDbLine
 10
273.5265199710046
 20
-29.22315622274799
 30
0.0
 11
299.0358639991936
 21
-30.1139665769242
 31
0.0
  0
ARC
  5
17612
330
1E
100
AcDbEntity
  8
DETAIL
  6
CONTINUOUS
100
AcDbCircle
 10
299.0006961650614
 20
-31.11265066812848
 30
0.0
 40
0.9993031024588942
100
AcDbArc
 50
0.0167700040933668
 51
87.98320987764506
  0
LINE
  5
17613
330
1E
100
AcDbEntity
  8
DETAIL
  6
CONTINUOUS
100
AcDbLine
 10
113.1870250068059
 20
-0.1997996294239781
 30
0.0
 11
0.0
 21
-0.1997799905302597
 31
0.0
  0
LINE
  5
17614
330
1E
100
AcDbEntity
  8
DETAIL
  6
CONTINUOUS
100
AcDbLine
 10
8.548902406435445
 20
-5.993981473836356
 30
0.0
 11
113.1870240014613
 21
-5.993999629423343
 31
0.0
  0
ARC
  5
17615
330
1E
100
AcDbEntity
  8
DETAIL
  6
CONTINUOUS
100
AcDbCircle
 10
104.8997182437888
 20
-5.060061021671572
 30
0.0
 40
11.15880865318406
100
AcDbArc
 50
154.1794442757876
 51
184.8009800255146
  0
ARC
  5
17616
330
1E
100
AcDbEntity
  8
DETAIL
  6
CONTINUOUS
100
AcDbCircle
 10
99.19222714431818
 20
-5.074318385290097
 30
0.0
 40
6.524776485525462
100
AcDbArc
 50
131.6620391235866
 51
188.1029150558586
  0
ARC
  5
17617
330
1E
100
AcDbEntity
  8
DETAIL
  6
CONTINUOUS
100
AcDbCircle
 10
87.60906004896606
 20
-5.157160165294044
 30
0.0
 40
5.512503045497255
100
AcDbArc
 50
115.9344722626977
 51
188.731633432033
  0
LINE
  5
17618
330
1E
100
AcDbEntity
  8
DETAIL
  6
CONTINUOUS
100
AcDbLine
 10
77.97043310255684
 20
-5.993993519050491
 30
0.0
 11
77.97043410789775
 21
-0.1997935190520363
 31
0.0
  0
LINE
  5
17619
330
1E
100
AcDbEntity
  8
DETAIL
  6
CONTINUOUS
100
AcDbLine
 10
114.2034560604552
 20
-7.229669768006714
 30
0.0
 11
114.6855237870477
 21
-7.229666671682933
 31
0.0
  0
LINE
  5
1761A
330
1E
100
AcDbEntity
  8
DETAIL
  6
CONTINUOUS
100
AcDbLine
 10
114.2034560604552
 20
-7.229669768006714
 30
0.0
 11
113.1870614490652
 21
-7.265162873397457
 31
0.0
  0
LINE
  5
1761B
330
1E
100
AcDbEntity
  8
DETAIL
  6
CONTINUOUS
100
AcDbLine
 10
114.2034570507565
 20
-1.738516867660108
 30
0.0
 11
114.2034560604552
 21
-7.229669768006714
 31
0.0
  0
LINE
  5
1761C
330
1E
100
AcDbEntity
  8
DETAIL
  6
CONTINUOUS
100
AcDbLine
 10
113.1870247336663
 20
-1.774011289734515
 30
0.0
 11
114.2034570507565
 21
-1.738516867660108
 31
0.0
  0
LINE
  5
1761D
330
1E
100
AcDbEntity
  8
DETAIL
  6
CONTINUOUS
100
AcDbLine
 10
113.1870240014613
 20
-5.993999629423343
 30
0.0
 11
113.1870250068059
 21
-0.1997996294239781
 31
0.0
  0
ARC
  5
1761E
330
1E
100
AcDbEntity
  8
DETAIL
  6
CONTINUOUS
100
AcDbCircle
 10
114.1943313528172
 20
-1.239065305629082
 30
0.0
 40
0.4995349248835204
100
AcDbArc
 50
271.0467597793701
 51
349.5146696930512
  0
LINE
  5
1761F
330
1E
100
AcDbEntity
  8
DETAIL
  6
CONTINUOUS
100
AcDbLine
 10
-0.000000000163709
 20
-22.17777999053123
 30
0.0
 11
7.293185936632652
 21
-22.17778125595941
 31
0.0
  0
LINE
  5
17620
330
1E
100
AcDbEntity
  8
DETAIL
  6
CONTINUOUS
100
AcDbLine
 10
11.29732852174493
 20
-0.1997819507114398
 30
0.0
 11
5.000000754775101
 21
-13.4757340824035
 31
0.0
  0
POINT
  5
17DE2
330
1E
100
AcDbEntity
  8
ARRANGE
  6
CONTINUOUS
100
AcDbPoint
 10
0.0
 20
0.0000000000000002
 30
0.0
  0
CIRCLE
  5
17DE4
330
1E
100
AcDbEntity
  8
ARRANGE
  6
CONTINUOUS
 62
     1
100
AcDbCircle
 10
0.0
 20
0.0
 30
0.0
 40
40.0
  0
TEXT
  5
17DF5
330
1E
100
AcDbEntity
  8
NOTE
 62
     4
100
AcDbText
 10
-829.1431914061869
 20
-555.3168197489167
 30
0.0
 40
64.0
  1
D,RL,RG%%C75～%%C80
 50
359.9999999999997
 41
0.9
100
AcDbText
  0
LINE
  5
17DF6
330
1E
100
AcDbEntity
  8
NOTE
  6
CONTINUOUS
 62
     4
100
AcDbLine
 10
-843.2717185908586
 20
-582.0676797489168
 30
0.0
 11
-102.9722684997085
 21
-582.0676797489186
 31
0.0
  0
LINE
  5
17DF7
330
1E
100
AcDbEntity
  8
NOTE
  6
CONTINUOUS
 62
     4
100
AcDbLine
 10
-0.0000000023719622
 20
-318.0407821585859
 30
0.0
 11
-102.9722684997085
 21
-582.0676797489186
 31
0.0
  0
LINE
  5
17DF9
330
1E
100
AcDbEntity
  8
NOTE
  6
DASHDOT
 62
     4
100
AcDbLine
 10
-20.00000000237196
 20
-318.0407821585859
 30
0.0
 11
19.99999999762803
 21
-318.0407821585859
 31
0.0
  0
LINE
  5
17DFA
330
1E
100
AcDbEntity
  8
NOTE
  6
CONTINUOUS
 62
     4
100
AcDbLine
 10
-0.0000000023719622
 20
-318.0407821585859
 30
0.0
 11
-4.257232465135529
 21
-357.8135841430256
 31
0.0
  0
LINE
  5
17DFB
330
1E
100
AcDbEntity
  8
NOTE
  6
CONTINUOUS
 62
     4
100
AcDbLine
 10
-23.5732774477874
 20
-350.356427396212
 30
0.0
 11
-0.0000000023719622
 21
-318.0407821585859
 31
0.0
  0
LINE
  5
17DFC
330
1E
100
AcDbEntity
  8
NOTE
  6
DASHDOT
 62
     4
100
AcDbLine
 10
-0.0000000023719622
 20
-298.0407821585858
 30
0.0
 11
-0.0000000023719622
 21
-338.0407821585858
 31
0.0
  0
TEXT
  5
1810F
330
1E
100
AcDbEntity
  8
ETC
100
AcDbText
 10
-654.6498263384728
 20
221.2943008468681
 30
0.0
 40
64.0
  1
PKFY-P63VKM_5
 41
0.7551957866624516
 72
     5
 11
-33.23157902765547
 21
221.2943008468681
 31
0.0
100
AcDbText
  0
LINE
  5
181EF
330
1E
100
AcDbEntity
  8
SIZE
  6
CONTINUOUS
100
AcDbLine
 10
94.68552504145916
 20
0.0000000000000059
 30
0.0
 11
-185.0452815216201
 21
0.0000000000000851
 31
0.0
  0
LINE
  5
181F0
330
1E
100
AcDbEntity
  8
SIZE
  6
CONTINUOUS
100
AcDbLine
 10
94.68546170384071
 20
-365.0407821585863
 30
0.0
 11
-185.0452815216203
 21
-365.0407821585861
 31
0.0
  0
LINE
  5
181F1
330
1E
100
AcDbEntity
  8
SIZE
  6
CONTINUOUS
100
AcDbLine
 10
-165.0452815216203
 20
-9.99999999999992
 30
0.0
 11
-165.0452815216203
 21
-355.0407821585863
 31
0.0
  0
LINE
  5
181F5
330
1E
100
AcDbEntity
  8
SIZE
  6
CONTINUOUS
100
AcDbLine
 10
-40.00000000237196
 20
-318.0407821585863
 30
0.0
 11
-103.5070476932159
 21
-318.0407821585863
 31
0.0
  0
LINE
  5
181F6
330
1E
100
AcDbEntity
  8
SIZE
  6
CONTINUOUS
100
AcDbLine
 10
94.68546170383888
 20
-365.0407821585863
 30
0.0
 11
-103.5070476932159
 21
-365.0407821585863
 31
0.0
  0
LINE
  5
181F7
330
1E
100
AcDbEntity
  8
SIZE
  6
CONTINUOUS
100
AcDbLine
 10
-83.50704769321607
 20
-375.0407821585863
 30
0.0
 11
-83.50704769321607
 21
-385.0407821585863
 31
0.0
  0
LINE
  5
181F8
330
1E
100
AcDbEntity
  8
SIZE
  6
CONTINUOUS
100
AcDbLine
 10
-83.50704769321607
 20
-308.0407821585863
 30
0.0
 11
-83.50704769321605
 21
-205.1836393014419
 31
0.0
  0
LINE
  5
181F9
330
1E
100
AcDbEntity
  8
SIZE
  6
CONTINUOUS
100
AcDbLine
 10
-83.50704769321607
 20
-365.0407821585863
 30
0.0
 11
-83.50704769321607
 21
-318.0407821585863
 31
0.0
  0
LINE
  5
181FD
330
1E
100
AcDbEntity
  8
SIZE
  6
CONTINUOUS
100
AcDbLine
 10
299.9999992247249
 20
-11.1123582101618
 30
0.0
 11
299.9999992247249
 21
176.9543251172754
 31
0.0
  0
LINE
  5
181FE
330
1E
100
AcDbEntity
  8
SIZE
  6
CONTINUOUS
100
AcDbLine
 10
0.0000000000000012
 20
19.80022000946928
 30
0.0
 11
0.0000000000000108
 21
176.9543251172754
 31
0.0
  0
LINE
  5
181FF
330
1E
100
AcDbEntity
  8
SIZE
  6
CONTINUOUS
100
AcDbLine
 10
289.9999992247249
 20
156.9543251172754
 30
0.0
 11
10.0
 21
156.9543251172754
 31
0.0
  0
TEXT
  5
18203
330
1E
100
AcDbEntity
  8
SIZE
  6
CONTINUOUS
100
AcDbText
 10
-93.507047693216
 20
-288.0407821585848
 30
0.0
 40
50.0
  1
47
 50
90.0
 41
0.9
100
AcDbText
  0
CIRCLE
  5
18204
330
1E
100
AcDbEntity
  8
SIZE
  6
BYBLOCK
100
AcDbCircle
 10
-165.0452815216203
 20
-365.0407821585861
 30
0.0
 40
5.0
  0
LINE
  5
18205
330
1E
100
AcDbEntity
  8
SIZE
  6
BYBLOCK
100
AcDbLine
 10
-165.0452815216203
 20
-365.0407821585861
 30
0.0
 11
-165.0452815216203
 21
-355.0407821585863
 31
0.0
  0
CIRCLE
  5
18206
330
1E
100
AcDbEntity
  8
SIZE
  6
BYBLOCK
100
AcDbCircle
 10
-83.50704769321607
 20
-318.0407821585863
 30
0.0
 40
5.0
  0
LINE
  5
18207
330
1E
100
AcDbEntity
  8
SIZE
  6
BYBLOCK
100
AcDbLine
 10
-83.50704769321607
 20
-318.0407821585863
 30
0.0
 11
-83.50704769321607
 21
-308.0407821585863
 31
0.0
  0
CIRCLE
  5
18208
330
1E
100
AcDbEntity
  8
SIZE
  6
BYBLOCK
100
AcDbCircle
 10
-83.50704769321607
 20
-365.0407821585863
 30
0.0
 40
5.0
  0
LINE
  5
18209
330
1E
100
AcDbEntity
  8
SIZE
  6
BYBLOCK
100
AcDbLine
 10
-83.50704769321607
 20
-365.0407821585863
 30
0.0
 11
-83.50704769321607
 21
-375.0407821585863
 31
0.0
  0
TEXT
  5
1820A
330
1E
100
AcDbEntity
  8
SIZE
  6
CONTINUOUS
100
AcDbText
 10
-175.0452815216203
 20
-240.377533936436
 30
0.0
 40
50.0
  1
365
 50
90.0
 41
0.9
100
AcDbText
  0
CIRCLE
  5
1820B
330
1E
100
AcDbEntity
  8
SIZE
  6
BYBLOCK
100
AcDbCircle
 10
-165.0452815216203
 20
0.0000000000000795
 30
0.0
 40
5.0
  0
LINE
  5
1820C
330
1E
100
AcDbEntity
  8
SIZE
  6
BYBLOCK
100
AcDbLine
 10
-165.0452815216203
 20
0.0000000000000795
 30
0.0
 11
-165.0452815216203
 21
-9.99999999999992
 31
0.0
  0
TEXT
  5
1820D
330
1E
100
AcDbEntity
  8
SIZE
  6
CONTINUOUS
100
AcDbText
 10
92.1428567552196
 20
166.9543251172754
 30
0.0
 40
50.0
  1
300
 41
0.9
100
AcDbText
  0
CIRCLE
  5
1820E
330
1E
100
AcDbEntity
  8
SIZE
  6
BYBLOCK
100
AcDbCircle
 10
0.0000000000000096
 20
156.9543251172754
 30
0.0
 40
5.0
  0
LINE
  5
1820F
330
1E
100
AcDbEntity
  8
SIZE
  6
BYBLOCK
100
AcDbLine
 10
0.0000000000000096
 20
156.9543251172754
 30
0.0
 11
10.0
 21
156.9543251172754
 31
0.0
  0
CIRCLE
  5
18210
330
1E
100
AcDbEntity
  8
SIZE
  6
BYBLOCK
100
AcDbCircle
 10
299.9999992247249
 20
156.9543251172754
 30
0.0
 40
5.0
  0
LINE
  5
18211
330
1E
100
AcDbEntity
  8
SIZE
  6
BYBLOCK
100
AcDbLine
 10
299.9999992247249
 20
156.9543251172754
 30
0.0
 11
289.9999992247249
 21
156.9543251172754
 31
0.0
  0
LINE
  5
18212
330
1E
100
AcDbEntity
  8
OUTLINE
  6
CONTINUOUS
100
AcDbLine
 10
0.0
 20
-0.19977999053026
 30
0.0
 11
-0.0000000026611815
 21
-356.8092069923195
 31
0.0
  0
LINE
  5
18216
330
1E
100
AcDbEntity
  8
OUTLINE
  6
CONTINUOUS
100
AcDbLine
 10
114.6854617038407
 20
-365.0407821585858
 30
0.0
 11
114.6854619193924
 21
-363.7984687355361
 31
0.0
  0
LINE
  5
18217
330
1E
100
AcDbEntity
  8
OUTLINE
  6
CONTINUOUS
100
AcDbLine
 10
113.1468603249412
 20
-364.8347996224611
 30
0.0
 11
113.146977683643
 21
-363.7862628822495
 31
0.0
  0
LINE
  5
1821E
330
1E
100
AcDbEntity
  8
OUTLINE
  6
CONTINUOUS
100
AcDbLine
 10
-0.000000000163709
 20
-22.17777999053123
 30
0.0
 11
-0.000029030836231
 21
-356.8092122192001
 31
0.0
  0
LINE
  5
18224
330
1E
100
AcDbEntity
  8
OUTLINE
  6
CONTINUOUS
100
AcDbLine
 10
299.9999992247249
 20
-31.1123581803231
 30
0.0
 11
299.9999788088353
 21
-266.4426797784853
 31
0.0
  0
ARC
  5
18226
330
1E
100
AcDbEntity
  8
OUTLINE
  6
CONTINUOUS
100
AcDbCircle
 10
-691.4514404509461
 20
448.4901267361101
 30
0.0
 40
1222.61904870681
100
AcDbArc
 50
323.0345891301857
 51
324.1627018834273
  0
ARC
  5
18231
330
1E
100
AcDbEntity
  8
OUTLINE
  6
CONTINUOUS
100
AcDbCircle
 10
121.0602578272228
 20
-173.7142070916578
 30
0.0
 40
191.4327462908466
100
AcDbArc
 50
268.091672092653
 51
318.7718904678261
  0
LINE
  5
18237
330
1E
100
AcDbEntity
  8
OUTLINE
  6
CONTINUOUS
100
AcDbLine
 10
113.1468603249412
 20
-364.8347996224611
 30
0.0
 11
4.999970272911014
 21
-364.8347808580738
 31
0.0
  0
LINE
  5
18240
330
1E
100
AcDbEntity
  8
OUTLINE
  6
CONTINUOUS
100
AcDbLine
 10
-0.000029030836231
 20
-356.8092122192001
 30
0.0
 11
4.999970679982651
 21
-360.1425466128721
 31
0.0
  0
LINE
  5
18245
330
1E
100
AcDbEntity
  8
OUTLINE
  6
CONTINUOUS
100
AcDbLine
 10
114.6854619193909
 20
-363.7984687355373
 30
0.0
 11
113.146977683642
 21
-363.7862628822495
 31
0.0
  0
ARC
  5
1824A
330
1E
100
AcDbEntity
  8
OUTLINE
  6
CONTINUOUS
100
AcDbCircle
 10
284.3441981965588
 20
-285.560321478898
 30
0.0
 40
1.574794409012918
100
AcDbArc
 50
278.2353416148604
 51
313.0675056643556
  0
ARC
  5
1824B
330
1E
100
AcDbEntity
  8
OUTLINE
  6
CONTINUOUS
100
AcDbCircle
 10
266.0341678997465
 20
-287.6599813797657
 30
0.0
 40
0.9989354918021067
100
AcDbArc
 50
102.5252622049864
 51
179.9964546158478
  0
LINE
  5
1824C
330
1E
100
AcDbEntity
  8
OUTLINE
  6
CONTINUOUS
100
AcDbLine
 10
265.8175287131125
 20
-286.6848200702396
 30
0.0
 11
272.0279755387272
 21
-285.3047219064373
 31
0.0
  0
ARC
  5
18250
330
1E
100
AcDbEntity
  8
OUTLINE
  6
CONTINUOUS
100
AcDbCircle
 10
272.996854348461
 20
-288.3856156567034
 30
0.0
 40
0.9692273023979907
100
AcDbArc
 50
178.4646616750146
 51
269.7195520403869
  0
LINE
  5
18251
330
1E
100
AcDbEntity
  8
OUTLINE
  6
CONTINUOUS
100
AcDbLine
 10
273.526474832215
 20
-289.3765630335891
 30
0.0
 11
273.5264747975524
 21
-289.5763630335886
 31
0.0
  0
LINE
  5
18252
330
1E
100
AcDbEntity
  8
OUTLINE
  6
CONTINUOUS
100
AcDbLine
 10
272.9921102514198
 20
-289.3548313485153
 30
0.0
 11
273.526474832215
 21
-289.3765630335891
 31
0.0
  0
LINE
  5
18254
330
1E
100
AcDbEntity
  8
OUTLINE
  6
CONTINUOUS
100
AcDbLine
 10
284.569770851911
 20
-287.1188767093981
 30
0.0
 11
273.5264747975524
 21
-289.5763630335886
 31
0.0
  0
ARC
  5
18257
330
1E
100
AcDbEntity
  8
OUTLINE
  6
CONTINUOUS
100
AcDbCircle
 10
298.5016612784966
 20
-266.442739824015
 30
0.0
 40
1.498317531543265
100
AcDbArc
 50
323.4207209915429
 51
0.0022961457567933
  0
ARC
  5
18259
330
1E
100
AcDbEntity
  8
OUTLINE
  6
CONTINUOUS
100
AcDbCircle
 10
119.4376918471497
 20
-450.0474029684347
 30
0.0
 40
450.0724919476658
100
AcDbArc
 50
71.17088704871803
 51
90.60497845531369
  0
LINE
  5
1825A
330
1E
100
AcDbEntity
  8
OUTLINE
  6
CONTINUOUS
100
AcDbLine
 10
113.1870250068059
 20
-0.1997996294239783
 30
0.0
 11
0.0
 21
-0.19977999053026
 31
0.0
  0
LINE
  5
18261
330
1E
100
AcDbEntity
  8
OUTLINE
  6
CONTINUOUS
100
AcDbLine
 10
113.1870247336663
 20
-1.774011289734516
 30
0.0
 11
114.2034570507565
 21
-1.738516867660108
 31
0.0
  0
ARC
  5
18263
330
1E
100
AcDbEntity
  8
OUTLINE
  6
CONTINUOUS
100
AcDbCircle
 10
114.1943313528172
 20
-1.239065305629083
 30
0.0
 40
0.4995349248835204
100
AcDbArc
 50
271.0467597793701
 51
349.5146696930512
  0
ARC
  5
18269
330
1E
100
AcDbEntity
  8
OUTLINE
  6
CONTINUOUS
100
AcDbCircle
 10
299.0006961650614
 20
-31.11265066812848
 30
0.0
 40
0.9993031024588942
100
AcDbArc
 50
0.0167700040933668
 51
87.98320987764506
  0
LINE
  5
1826D
330
1E
100
AcDbEntity
  8
OUTLINE
  6
CONTINUOUS
100
AcDbLine
 10
269.76582141166
 20
-31.64999690526201
 30
0.0
 11
265.0352779433087
 21
-25.23189587557862
 31
0.0
  0
LINE
  5
1826E
330
1E
100
AcDbEntity
  8
OUTLINE
  6
CONTINUOUS
100
AcDbLine
 10
272.0280192529679
 20
-33.36156510064302
 30
0.0
 11
269.76582141166
 21
-31.64999690526201
 31
0.0
  0
SPLINE
  5
1826F
330
1E
100
AcDbEntity
  8
OUTLINE
  6
CONTINUOUS
100
AcDbSpline
210
0.0
220
0.0
230
1.0
 70
    24
 71
     3
 72
     9
 73
     5
 74
     3
 42
0.0000000001
 43
0.0000000001
 44
0.00000001
 40
0.0
 40
0.0
 40
0.0
 40
0.0
 40
0.2673451852404793
 40
0.5346903704808783
 40
0.5346903704808783
 40
0.5346903704808783
 40
0.5346903704808783
 10
273.5265199363348
 20
-29.42295622274741
 30
0.0
 10
273.4374591605362
 20
-29.42606627809838
 30
0.0
 10
273.2593376089389
 20
-29.43228638880007
 30
0.0
 10
273.0812160573416
 20
-29.43850649950134
 30
0.0
 10
272.992155281543
 20
-29.44161655485186
 30
0.0
 11
273.5265199363348
 21
-29.42295622274741
 31
0.0
 11
273.2593376089389
 21
-29.43228638880009
 31
0.0
 11
272.992155281543
 21
-29.44161655485186
 31
0.0
  0
ARC
  5
18270
330
1E
100
AcDbEntity
  8
OUTLINE
  6
CONTINUOUS
100
AcDbCircle
 10
272.9763841110215
 20
-30.39110970317778
 30
0.0
 40
0.9496241196077983
100
AcDbArc
 50
89.04839921980451
 51
182.9515840171898
  0
ARC
  5
18272
330
1E
100
AcDbEntity
  8
OUTLINE
  6
CONTINUOUS
100
AcDbCircle
 10
264.5357780885241
 20
-24.53310181189226
 30
0.0
 40
0.4994999760291364
100
AcDbArc
 50
359.9999872564779
 51
71.15921994965531
  0
LINE
  5
18274
330
1E
100
AcDbEntity
  8
OUTLINE
  6
CONTINUOUS
100
AcDbLine
 10
273.5265199710046
 20
-29.22315622274799
 30
0.0
 11
299.0358639991936
 21
-30.1139665769242
 31
0.0
  0
LINE
  5
18276
330
1E
100
AcDbEntity
  8
OUTLINE
  6
CONTINUOUS
100
AcDbLine
 10
114.6855248106978
 20
-1.329972555690744
 30
0.0
 11
114.6855250414591
 21
0.0000000000009095
 31
0.0
  0
LINE
  5
18277
330
1E
100
AcDbEntity
  8
OUTLINE
  6
CONTINUOUS
100
AcDbLine
 10
113.1870247336663
 20
-1.774011289734516
 30
0.0
 11
113.1870250068059
 21
-0.1997996294239783
 31
0.0
  0
LINE
  5
1827A
330
1E
100
AcDbEntity
  8
OUTLINE
  6
CONTINUOUS
100
AcDbLine
 10
4.999970272911014
 20
-364.8347808580738
 30
0.0
 11
4.999970679982651
 21
-360.1425466128721
 31
0.0
  0
LINE
  5
1827B
330
1E
100
AcDbEntity
  8
OUTLINE
  6
CONTINUOUS
100
AcDbLine
 10
265.0352324098573
 20
-287.6599195599233
 30
0.0
 11
265.0352302896425
 21
-299.8795892646739
 31
0.0
  0
LINE
  5
1827C
330
1E
100
AcDbEntity
  8
OUTLINE
  6
CONTINUOUS
100
AcDbLine
 10
272.0279755387284
 20
-285.304721906437
 30
0.0
 11
272.0279750086738
 21
-288.3596466629787
 31
0.0
  0
LINE
  5
1827D
330
1E
100
AcDbEntity
  8
OUTLINE
  6
CONTINUOUS
100
AcDbLine
 10
273.5265199710046
 20
-29.22315622274799
 30
0.0
 11
273.5265199363348
 21
-29.42295622274741
 31
0.0
  0
LINE
  5
1827E
330
1E
100
AcDbEntity
  8
OUTLINE
  6
CONTINUOUS
100
AcDbLine
 10
272.0280197598725
 20
-30.44000782186031
 30
0.0
 11
272.0280192529679
 21
-33.36156510064302
 31
0.0
  0
LINE
  5
1827F
330
1E
100
AcDbEntity
  8
OUTLINE
  6
CONTINUOUS
100
AcDbLine
 10
265.0352780645532
 20
-24.53310192298926
 30
0.0
 11
265.0352779433087
 21
-25.23189587557862
 31
0.0
  0
ENDSEC
  0
SECTION
  2
OBJECTS
  0
DICTIONARY
  5
C
330
0
100
AcDbDictionary
  3
ACAD_GROUP
350
D
  3
ACAD_LAYOUT
350
19
  3
ACAD_MLINESTYLE
350
16
  3
ACAD_PLOTSETTINGS
350
18
  3
ACAD_PLOTSTYLENAME
350
E
  3
ACDBHEADERROUNDTRIPXREC
350
182C3
  0
DICTIONARY
  5
182A9
330
1E
100
AcDbDictionary
280
     1
  3
ACAD_LAYOUTSELFREF
360
182E5
  0
DICTIONARY
  5
182A7
330
1A
100
AcDbDictionary
280
     1
  3
ACAD_LAYOUTSELFREF
360
182E4
  0
DICTIONARY
  5
D
102
{ACAD_REACTORS
330
C
102
}
330
C
100
AcDbDictionary
  0
DICTIONARY
  5
19
102
{ACAD_REACTORS
330
C
102
}
330
C
100
AcDbDictionary
  0
DICTIONARY
  5
16
102
{ACAD_REACTORS
330
C
102
}
330
C
100
AcDbDictionary
  3
STANDARD
350
17
  0
DICTIONARY
  5
18
102
{ACAD_REACTORS
330
C
102
}
330
C
100
AcDbDictionary
  0
ACDBDICTIONARYWDFLT
  5
E
102
{ACAD_REACTORS
330
C
102
}
330
C
100
AcDbDictionary
281
     1
  3
Normal
350
F
100
AcDbDictionaryWithDefault
340
F
  0
DICTIONARY
  5
182C3
102
{ACAD_REACTORS
330
C
102
}
330
C
100
AcDbDictionary
  3
CEPSNTYPE
350
182CD
  3
DIMSTYLEDATA
350
182D1
  3
FINGERPRINTGUID
350
182CE
  3
HYPERLINKBASE
350
182C6
  3
INSUNITS
350
182CC
  3
LAYOUTDICT
350
182C8
  3
LWETCUNION
350
182CB
  3
PLOTSETDICT
350
182C9
  3
PLOTSTYLNAMDICT
350
182CA
  3
PSVPSCALE
350
182D0
  3
PUCSBASE
350
182D4
  3
PUCSORGBACK
350
182DA
  3
PUCSORGBOTTOM
350
182D6
  3
PUCSORGFRONT
350
182D9
  3
PUCSORGLEFT
350
182D7
  3
PUCSORGRIGHT
350
182D8
  3
PUCSORGTOP
350
182D5
  3
PUCSORTHOREF
350
182D2
  3
PUCSORTHOVIEW
350
182D3
  3
STYLESHEET
350
182C7
  3
TSTACKALIGN
350
182C4
  3
TSTACKSIZE
350
182C5
  3
UCSBASE
350
182DD
  3
UCSORGBACK
350
182E3
  3
UCSORGBOTTOM
350
182DF
  3
UCSORGFRONT
350
182E2
  3
UCSORGLEFT
350
182E0
  3
UCSORGRIGHT
350
182E1
  3
UCSORGTOP
350
182DE
  3
UCSORTHOREF
350
182DB
  3
UCSORTHOVIEW
350
182DC
  3
VERSIONGUID
350
182CF
  0
XRECORD
  5
182E5
102
{ACAD_REACTORS
330
182A9
102
}
330
182A9
100
AcDbXrecord
340
1E
  0
XRECORD
  5
182E4
102
{ACAD_REACTORS
330
182A7
102
}
330
182A7
100
AcDbXrecord
340
1A
  0
MLINESTYLE
  5
17
102
{ACAD_REACTORS
330
16
102
}
330
16
100
AcDbMlineStyle
  2
STANDARD
 70
     0
  3

 62
   256
 51
90.0
 52
90.0
 71
     2
 49
0.5
 62
   256
  6
BYLAYER
 49
-0.5
 62
   256
  6
BYLAYER
  0
ACDBPLACEHOLDER
  5
F
102
{ACAD_REACTORS
330
E
102
}
330
E
100
AcDbPlaceHolder
280
     0
  0
XRECORD
  5
182CD
102
{ACAD_REACTORS
330
182C3
102
}
330
182C3
100
AcDbXrecord
 90
        0
  0
XRECORD
  5
182D1
102
{ACAD_REACTORS
330
182C3
102
}
330
182C3
100
AcDbXrecord
1000
DSTYLE
1002
{
1070
   341
340
46
1070
   342
340
46
1002
}
  0
XRECORD
  5
182CE
102
{ACAD_REACTORS
330
182C3
102
}
330
182C3
100
AcDbXrecord
  1
{97DA8DB6-C4F0-4C3D-ABEB-53C4FBBC7EFF}
  0
XRECORD
  5
182C6
102
{ACAD_REACTORS
330
182C3
102
}
330
182C3
100
AcDbXrecord
  1

  0
XRECORD
  5
182CC
102
{ACAD_REACTORS
330
182C3
102
}
330
182C3
100
AcDbXrecord
 90
        0
  0
XRECORD
  5
182C8
102
{ACAD_REACTORS
330
182C3
102
}
330
182C3
100
AcDbXrecord
340
19
  0
XRECORD
  5
182CB
102
{ACAD_REACTORS
330
182C3
102
}
330
182C3
100
AcDbXrecord
 90
    10781
  0
XRECORD
  5
182C9
102
{ACAD_REACTORS
330
182C3
102
}
330
182C3
100
AcDbXrecord
340
18
  0
XRECORD
  5
182CA
102
{ACAD_REACTORS
330
182C3
102
}
330
182C3
100
AcDbXrecord
340
E
  0
XRECORD
  5
182D0
102
{ACAD_REACTORS
330
182C3
102
}
330
182C3
100
AcDbXrecord
 40
0.0
  0
XRECORD
  5
182D4
102
{ACAD_REACTORS
330
182C3
102
}
330
182C3
100
AcDbXrecord
340
0
  0
XRECORD
  5
182DA
102
{ACAD_REACTORS
330
182C3
102
}
330
182C3
100
AcDbXrecord
 10
0.0
 20
0.0
 30
0.0
  0
XRECORD
  5
182D6
102
{ACAD_REACTORS
330
182C3
102
}
330
182C3
100
AcDbXrecord
 10
0.0
 20
0.0
 30
0.0
  0
XRECORD
  5
182D9
102
{ACAD_REACTORS
330
182C3
102
}
330
182C3
100
AcDbXrecord
 10
0.0
 20
0.0
 30
0.0
  0
XRECORD
  5
182D7
102
{ACAD_REACTORS
330
182C3
102
}
330
182C3
100
AcDbXrecord
 10
0.0
 20
0.0
 30
0.0
  0
XRECORD
  5
182D8
102
{ACAD_REACTORS
330
182C3
102
}
330
182C3
100
AcDbXrecord
 10
0.0
 20
0.0
 30
0.0
  0
XRECORD
  5
182D5
102
{ACAD_REACTORS
330
182C3
102
}
330
182C3
100
AcDbXrecord
 10
0.0
 20
0.0
 30
0.0
  0
XRECORD
  5
182D2
102
{ACAD_REACTORS
330
182C3
102
}
330
182C3
100
AcDbXrecord
340
0
  0
XRECORD
  5
182D3
102
{ACAD_REACTORS
330
182C3
102
}
330
182C3
100
AcDbXrecord
 70
     0
  0
XRECORD
  5
182C7
102
{ACAD_REACTORS
330
182C3
102
}
330
182C3
100
AcDbXrecord
  1
u.ctb
  0
XRECORD
  5
182C4
102
{ACAD_REACTORS
330
182C3
102
}
330
182C3
100
AcDbXrecord
 90
        1
  0
XRECORD
  5
182C5
102
{ACAD_REACTORS
330
182C3
102
}
330
182C3
100
AcDbXrecord
 90
       70
  0
XRECORD
  5
182DD
102
{ACAD_REACTORS
330
182C3
102
}
330
182C3
100
AcDbXrecord
340
0
  0
XRECORD
  5
182E3
102
{ACAD_REACTORS
330
182C3
102
}
330
182C3
100
AcDbXrecord
 10
0.0
 20
0.0
 30
0.0
  0
XRECORD
  5
182DF
102
{ACAD_REACTORS
330
182C3
102
}
330
182C3
100
AcDbXrecord
 10
0.0
 20
0.0
 30
0.0
  0
XRECORD
  5
182E2
102
{ACAD_REACTORS
330
182C3
102
}
330
182C3
100
AcDbXrecord
 10
0.0
 20
0.0
 30
0.0
  0
XRECORD
  5
182E0
102
{ACAD_REACTORS
330
182C3
102
}
330
182C3
100
AcDbXrecord
 10
0.0
 20
0.0
 30
0.0
  0
XRECORD
  5
182E1
102
{ACAD_REACTORS
330
182C3
102
}
330
182C3
100
AcDbXrecord
 10
0.0
 20
0.0
 30
0.0
  0
XRECORD
  5
182DE
102
{ACAD_REACTORS
330
182C3
102
}
330
182C3
100
AcDbXrecord
 10
0.0
 20
0.0
 30
0.0
  0
XRECORD
  5
182DB
102
{ACAD_REACTORS
330
182C3
102
}
330
182C3
100
AcDbXrecord
340
0
  0
XRECORD
  5
182DC
102
{ACAD_REACTORS
330
182C3
102
}
330
182C3
100
AcDbXrecord
 70
     0
  0
XRECORD
  5
182CF
102
{ACAD_REACTORS
330
182C3
102
}
330
182C3
100
AcDbXrecord
  1
{59DBACAF-6D94-4C7E-AFD3-BA473E8EA89F}
  0
ENDSEC
  0
EOF
