  0
SECTION
  2
HEADER
  9
$ACADVER
  1
AC1014
  9
$ACADMAINTVER
 70
     9
  9
$DWGCODEPAGE
  3
ANSI_932
  9
$INSBASE
 10
0.0
 20
0.0
 30
0.0
  9
$EXTMIN
 10
1559.418300029094
 20
1784.798885564257
 30
-0.0015258207003583
  9
$EXTMAX
 10
2708.67322119388
 20
2652.536762901687
 30
0.0000000349246037
  9
$LIMMIN
 10
-3424.718897474421
 20
-241.2751718400066
  9
$LIMMAX
 10
5483.332090746102
 20
4682.367238430699
  9
$ORTHOMODE
 70
     1
  9
$REGENMODE
 70
     1
  9
$FILLMODE
 70
     1
  9
$QTEXTMODE
 70
     0
  9
$MIRRTEXT
 70
     0
  9
$DRAGMODE
 70
     2
  9
$LTSCALE
 40
20.0
  9
$OSMODE
 70
    37
  9
$ATTMODE
 70
     1
  9
$TEXTSIZE
 40
64.0
  9
$TRACEWID
 40
0.05
  9
$TEXTSTYLE
  7
STANDARD
  9
$CLAYER
  8
OUTLINE
  9
$CELTYPE
  6
CONTINUOUS
  9
$CECOLOR
 62
   256
  9
$CELTSCALE
 40
1.0
  9
$DELOBJ
 70
     1
  9
$DISPSILH
 70
     0
  9
$DIMSCALE
 40
1.0
  9
$DIMASZ
 40
10.0
  9
$DIMEXO
 40
20.0
  9
$DIMDLI
 40
200.0
  9
$DIMRND
 40
0.0
  9
$DIMDLE
 40
0.0
  9
$DIMEXE
 40
20.0
  9
$DIMTP
 40
0.0
  9
$DIMTM
 40
0.0
  9
$DIMTXT
 40
50.0
  9
$DIMCEN
 40
0.082
  9
$DIMTSZ
 40
0.0
  9
$DIMTOL
 70
     0
  9
$DIMLIM
 70
     0
  9
$DIMTIH
 70
     0
  9
$DIMTOH
 70
     0
  9
$DIMSE1
 70
     0
  9
$DIMSE2
 70
     0
  9
$DIMTAD
 70
     1
  9
$DIMZIN
 70
     8
  9
$DIMBLK
  1
ORIGIN
  9
$DIMASO
 70
     1
  9
$DIMSHO
 70
     0
  9
$DIMPOST
  1

  9
$DIMAPOST
  1

  9
$DIMALT
 70
     0
  9
$DIMALTD
 70
     2
  9
$DIMALTF
 40
25.4
  9
$DIMLFAC
 40
1.0
  9
$DIMTOFL
 70
     1
  9
$DIMTVP
 40
0.0
  9
$DIMTIX
 70
     0
  9
$DIMSOXD
 70
     0
  9
$DIMSAH
 70
     0
  9
$DIMBLK1
  1

  9
$DIMBLK2
  1

  9
$DIMSTYLE
  2
STANDARD
  9
$DIMCLRD
 70
     0
  9
$DIMCLRE
 70
     0
  9
$DIMCLRT
 70
     0
  9
$DIMTFAC
 40
1.0
  9
$DIMGAP
 40
10.0
  9
$DIMJUST
 70
     0
  9
$DIMSD1
 70
     0
  9
$DIMSD2
 70
     0
  9
$DIMTOLJ
 70
     1
  9
$DIMTZIN
 70
     0
  9
$DIMALTZ
 70
     0
  9
$DIMALTTZ
 70
     0
  9
$DIMFIT
 70
     3
  9
$DIMUPT
 70
     0
  9
$DIMUNIT
 70
     2
  9
$DIMDEC
 70
     1
  9
$DIMTDEC
 70
     1
  9
$DIMALTU
 70
     2
  9
$DIMALTTD
 70
     2
  9
$DIMTXSTY
  7
STANDARD
  9
$DIMAUNIT
 70
     0
  9
$LUNITS
 70
     2
  9
$LUPREC
 70
     4
  9
$SKETCHINC
 40
0.1
  9
$FILLETRAD
 40
5.0
  9
$AUNITS
 70
     1
  9
$AUPREC
 70
     3
  9
$MENU
  1
ACAD
  9
$ELEVATION
 40
0.0
  9
$PELEVATION
 40
0.0
  9
$THICKNESS
 40
0.0
  9
$LIMCHECK
 70
     0
  9
$BLIPMODE
 70
     0
  9
$CHAMFERA
 40
0.0
  9
$CHAMFERB
 40
0.0
  9
$CHAMFERC
 40
0.0
  9
$CHAMFERD
 40
0.0
  9
$SKPOLY
 70
     0
  9
$TDCREATE
 40
2450330.393205995
  9
$TDUPDATE
 40
2454720.364648356
  9
$TDINDWG
 40
1.0018256250
  9
$TDUSRTIMER
 40
1.0018256250
  9
$USRTIMER
 70
     1
  9
$ANGBASE
 50
0.0
  9
$ANGDIR
 70
     0
  9
$PDMODE
 70
     3
  9
$PDSIZE
 40
-2.0
  9
$PLINEWID
 40
0.0
  9
$COORDS
 70
     0
  9
$SPLFRAME
 70
     0
  9
$SPLINETYPE
 70
     6
  9
$SPLINESEGS
 70
     8
  9
$ATTDIA
 70
     0
  9
$ATTREQ
 70
     1
  9
$HANDLING
 70
-16383
  9
$HANDSEED
  5
182DC
  9
$SURFTAB1
 70
     6
  9
$SURFTAB2
 70
     6
  9
$SURFTYPE
 70
     6
  9
$SURFU
 70
     6
  9
$SURFV
 70
     6
  9
$UCSNAME
  2

  9
$UCSORG
 10
0.0
 20
0.0
 30
0.0
  9
$UCSXDIR
 10
1.0
 20
0.0
 30
0.0
  9
$UCSYDIR
 10
0.0
 20
1.0
 30
0.0
  9
$PUCSNAME
  2

  9
$PUCSORG
 10
0.0
 20
0.0
 30
0.0
  9
$PUCSXDIR
 10
1.0
 20
0.0
 30
0.0
  9
$PUCSYDIR
 10
0.0
 20
1.0
 30
0.0
  9
$USERI1
 70
     0
  9
$USERI2
 70
     0
  9
$USERI3
 70
     0
  9
$USERI4
 70
     0
  9
$USERI5
 70
     0
  9
$USERR1
 40
20.0
  9
$USERR2
 40
0.0
  9
$USERR3
 40
0.0
  9
$USERR4
 40
0.0
  9
$USERR5
 40
0.0
  9
$WORLDVIEW
 70
     1
  9
$SHADEDGE
 70
     3
  9
$SHADEDIF
 70
    70
  9
$TILEMODE
 70
     1
  9
$MAXACTVP
 70
    64
  9
$PINSBASE
 10
0.0
 20
0.0
 30
0.0
  9
$PLIMCHECK
 70
     0
  9
$PEXTMIN
 10
1.000000000000000E+20
 20
1.000000000000000E+20
 30
1.000000000000000E+20
  9
$PEXTMAX
 10
-1.000000000000000E+20
 20
-1.000000000000000E+20
 30
-1.000000000000000E+20
  9
$PLIMMIN
 10
0.0
 20
0.0
  9
$PLIMMAX
 10
12.0
 20
9.0
  9
$UNITMODE
 70
     0
  9
$VISRETAIN
 70
     1
  9
$PLINEGEN
 70
     0
  9
$PSLTSCALE
 70
     1
  9
$TREEDEPTH
 70
  3020
  9
$PICKSTYLE
 70
     1
  9
$CMLSTYLE
  2
STANDARD
  9
$CMLJUST
 70
     0
  9
$CMLSCALE
 40
1.0
  9
$PROXYGRAPHICS
 70
     1
  9
$MEASUREMENT
 70
     0
  0
ENDSEC
  0
SECTION
  2
CLASSES
  0
CLASS
  1
ACDBDICTIONARYWDFLT
  2
AcDbDictionaryWithDefault
  3
AutoCAD 2000
 90
        0
280
     0
281
     0
  0
CLASS
  1
ACDBPLACEHOLDER
  2
AcDbPlaceHolder
  3
AutoCAD 2000
 90
        0
280
     0
281
     0
  0
CLASS
  1
LAYOUT
  2
AcDbLayout
  3
AutoCAD 2000
 90
        0
280
     0
281
     0
  0
CLASS
  1
LONG_TRANSACTION
  2
AcDbLongTransaction
  3
AutoCAD 2000
 90
        0
280
     0
281
     0
  0
CLASS
  1
LWPOLYLINE
  2
AcDbPolyline
  3
AutoCAD 2000
 90
        0
280
     0
281
     1
  0
CLASS
  1
HATCH
  2
AcDbHatch
  3
AutoCAD 2000
 90
        0
280
     0
281
     1
  0
CLASS
  1
XRECORD
  2
AcDbXrecord
  3
AutoCAD 2000
 90
        0
280
     0
281
     0
  0
CLASS
  1
LONG_TRANSACTION
  2
AcDbLongTransaction
  3
AutoCAD 2000
 90
        0
280
     0
281
     0
  0
CLASS
  1
LWPOLYLINE
  2
AcDbPolyline
  3
AutoCAD 2000
 90
        0
280
     0
281
     1
  0
CLASS
  1
HATCH
  2
AcDbHatch
  3
AutoCAD 2000
 90
        0
280
     0
281
     1
  0
CLASS
  1
XRECORD
  2
AcDbXrecord
  3
AutoCAD 2000
 90
        0
280
     0
281
     0
  0
ENDSEC
  0
SECTION
  2
TABLES
  0
TABLE
  2
VPORT
  5
8
330
0
100
AcDbSymbolTable
 70
     2
  0
VPORT
  5
182B8
330
8
100
AcDbSymbolTableRecord
100
AcDbViewportTableRecord
  2
*ACTIVE
 70
     0
 10
0.0
 20
0.0
 11
1.0
 21
1.0
 12
2134.045760611487
 22
2218.667824232972
 13
0.0
 23
0.0
 14
50.0
 24
50.0
 15
100.0
 25
100.0
 16
0.0
 26
0.0
 36
1.0
 17
0.0
 27
0.0
 37
0.0
 40
874.0486982635195
 41
1.947815533980582
 42
50.0
 43
0.0
 44
0.0
 50
0.0
 51
0.0
 71
     0
 72
   500
 73
     1
 74
     0
 75
     0
 76
     0
 77
     0
 78
     0
  0
ENDTAB
  0
TABLE
  2
LTYPE
  5
5
330
0
100
AcDbSymbolTable
 70
    16
  0
LTYPE
  5
13
330
5
100
AcDbSymbolTableRecord
100
AcDbLinetypeTableRecord
  2
BYBLOCK
 70
     0
  3

 72
    65
 73
     0
 40
0.0
  0
LTYPE
  5
14
330
5
100
AcDbSymbolTableRecord
100
AcDbLinetypeTableRecord
  2
BYLAYER
 70
     0
  3

 72
    65
 73
     0
 40
0.0
  0
LTYPE
  5
15
330
5
100
AcDbSymbolTableRecord
100
AcDbLinetypeTableRecord
  2
CONTINUOUS
 70
     0
  3
実線
 72
    65
 73
     0
 40
0.0
  0
LTYPE
  5
23
330
5
100
AcDbSymbolTableRecord
100
AcDbLinetypeTableRecord
  2
DASHDOT
 70
     0
  3
____ _ ____ _ ____ _ ____ _ ____ _ ____ _ ____
 72
    65
 73
     4
 40
5.5
 49
4.0
 74
     0
 49
-0.6
 74
     0
 49
0.3
 74
     0
 49
-0.6
 74
     0
  0
ENDTAB
  0
TABLE
  2
LAYER
  5
2
330
0
100
AcDbSymbolTable
 70
    17
  0
LAYER
  5
10
330
2
100
AcDbSymbolTableRecord
100
AcDbLayerTableRecord
  2
0
 70
     0
 62
     7
  6
CONTINUOUS
  0
LAYER
  5
22
330
2
100
AcDbSymbolTableRecord
100
AcDbLayerTableRecord
  2
SIZE
 70
     0
 62
    30
  6
CONTINUOUS
  0
LAYER
  5
31
330
2
100
AcDbSymbolTableRecord
100
AcDbLayerTableRecord
  2
DETAIL
 70
     0
 62
     5
  6
CONTINUOUS
  0
LAYER
  5
32
330
2
100
AcDbSymbolTableRecord
100
AcDbLayerTableRecord
  2
OUTLINE
 70
     0
 62
     3
  6
CONTINUOUS
  0
LAYER
  5
34
330
2
100
AcDbSymbolTableRecord
100
AcDbLayerTableRecord
  2
NOTE
 70
     0
 62
     4
  6
CONTINUOUS
  0
LAYER
  5
35
330
2
100
AcDbSymbolTableRecord
100
AcDbLayerTableRecord
  2
ARRANGE
 70
     0
 62
     1
  6
CONTINUOUS
  0
LAYER
  5
37
330
2
100
AcDbSymbolTableRecord
100
AcDbLayerTableRecord
  2
ETC
 70
     0
 62
    61
  6
CONTINUOUS
  0
LAYER
  5
3A
330
2
100
AcDbSymbolTableRecord
100
AcDbLayerTableRecord
  2
DEFPOINTS
 70
     0
 62
     7
  6
CONTINUOUS
  0
LAYER
  5
182A0
330
2
100
AcDbSymbolTableRecord
100
AcDbLayerTableRecord
  2
SERVICESPACE
 70
     0
 62
     2
  6
DASHDOT
  0
LAYER
  5
182A1
330
2
100
AcDbSymbolTableRecord
100
AcDbLayerTableRecord
  2
SYMBOLLINE
 70
     0
 62
    15
  6
CONTINUOUS
  0
LAYER
  5
182AA
330
2
100
AcDbSymbolTableRecord
100
AcDbLayerTableRecord
  2
BASIS
 70
     0
 62
     6
  6
DASHDOT
  0
LAYER
  5
182AB
330
2
100
AcDbSymbolTableRecord
100
AcDbLayerTableRecord
  2
FIX
 70
     0
 62
    11
  6
CONTINUOUS
  0
ENDTAB
  0
TABLE
  2
STYLE
  5
3
330
0
100
AcDbSymbolTable
 70
     2
  0
STYLE
  5
11
330
3
100
AcDbSymbolTableRecord
100
AcDbTextStyleTableRecord
  2
STANDARD
 70
     0
 40
0.0
 41
0.9
 50
0.0
 71
     0
 42
64.0
  3
SIMPLEX
  4
BIGFONT
  0
ENDTAB
  0
TABLE
  2
VIEW
  5
6
330
0
100
AcDbSymbolTable
 70
     1
  0
VIEW
  5
3C
330
6
100
AcDbSymbolTableRecord
100
AcDbViewTableRecord
  2
ALL
 70
     0
 40
4282.62
 10
0.0
 20
41.30990399999999
 41
5940.0
 11
0.0
 21
0.0
 31
1.0
 12
0.0
 22
0.0
 32
0.0
 42
50.0
 43
0.0
 44
0.0
 50
0.0
 71
     0
  0
ENDTAB
  0
TABLE
  2
UCS
  5
7
330
0
100
AcDbSymbolTable
 70
     0
  0
ENDTAB
  0
TABLE
  2
APPID
  5
9
330
0
100
AcDbSymbolTable
 70
     1
  0
APPID
  5
12
330
9
100
AcDbSymbolTableRecord
100
AcDbRegAppTableRecord
  2
ACAD
 70
     0
  0
ENDTAB
  0
TABLE
  2
DIMSTYLE
  5
A
330
0
100
AcDbSymbolTable
 70
     1
  0
DIMSTYLE
105
213
102
{ACAD_REACTORS
330
36DB
330
36DC
330
36DD
330
36DE
330
36DF
330
36E0
330
36E1
330
36E2
330
36E3
330
36E4
330
36E5
330
36E6
330
36E7
330
36E8
330
36E9
330
36EA
330
36EB
330
36EC
330
3771
330
3772
330
3773
330
3790
330
3791
330
3796
330
3797
330
379A
330
37A3
330
37A7
330
37A8
330
37B8
330
37BA
330
3842
330
384C
330
384D
330
384F
330
3856
330
3857
330
3860
330
3864
102
}
330
A
100
AcDbSymbolTableRecord
100
AcDbDimStyleTableRecord
  2
STANDARD
 70
     0
  3

  4

  5

  6

  7

 40
1.0
 41
0.18
 42
0.0625
 43
0.38
 44
0.18
 45
0.0
 46
0.0
 47
0.0
 48
0.0
140
0.18
141
0.09
142
0.0
143
25.4
144
1.0
145
0.0
146
1.0
147
0.09
 71
     0
 72
     0
 73
     1
 74
     1
 75
     0
 76
     0
 77
     0
 78
     0
170
     0
171
     2
172
     0
173
     0
174
     0
175
     0
176
     0
177
     0
178
     0
270
     2
271
     4
272
     4
273
     2
274
     2
340
11
275
     0
280
     0
281
     0
282
     0
283
     1
284
     0
285
     0
286
     0
287
     3
288
     0
  0
ENDTAB
  0
TABLE
  2
BLOCK_RECORD
  5
1
330
0
100
AcDbSymbolTable
 70
    84
  0
BLOCK_RECORD
  5
1E
102
{ACAD_XDICTIONARY
360
18297
102
}
330
1
100
AcDbSymbolTableRecord
100
AcDbBlockTableRecord
  2
*MODEL_SPACE
  0
BLOCK_RECORD
  5
1A
102
{ACAD_XDICTIONARY
360
18295
102
}
330
1
100
AcDbSymbolTableRecord
100
AcDbBlockTableRecord
  2
*PAPER_SPACE
  0
BLOCK_RECORD
  5
46
330
1
100
AcDbSymbolTableRecord
100
AcDbBlockTableRecord
  2
_ORIGIN
  0
ENDTAB
  0
ENDSEC
  0
SECTION
  2
BLOCKS
  0
BLOCK
  5
1F
330
1E
100
AcDbEntity
  8
0
100
AcDbBlockBegin
  2
*MODEL_SPACE
 70
     0
 10
0.0
 20
0.0
 30
0.0
  3
*MODEL_SPACE
  1

  0
ENDBLK
  5
20
330
1E
100
AcDbEntity
  8
0
100
AcDbBlockEnd
  0
BLOCK
  5
1B
330
1A
100
AcDbEntity
 67
     1
  8
0
100
AcDbBlockBegin
  2
*PAPER_SPACE
 70
     0
 10
0.0
 20
0.0
 30
0.0
  3
*PAPER_SPACE
  1

  0
ENDBLK
  5
1C
330
1A
100
AcDbEntity
 67
     1
  8
0
100
AcDbBlockEnd
  0
BLOCK
  5
47
330
46
100
AcDbEntity
  8
0
100
AcDbBlockBegin
  2
_ORIGIN
 70
     0
 10
0.0
 20
0.0
 30
0.0
  3
_ORIGIN
  1

  0
CIRCLE
  5
48
330
46
100
AcDbEntity
  8
0
  6
BYBLOCK
 62
     0
100
AcDbCircle
 10
0.0
 20
0.0
 30
0.0
 40
0.5
  0
LINE
  5
49
330
46
100
AcDbEntity
  8
0
  6
BYBLOCK
 62
     0
100
AcDbLine
 10
0.0
 20
0.0
 30
0.0
 11
-1.0
 21
0.0
 31
0.0
  0
ENDBLK
  5
4A
330
46
100
AcDbEntity
  8
0
100
AcDbBlockEnd
  0
ENDSEC
  0
SECTION
  2
ENTITIES
  0
LINE
  5
15F45
330
1E
100
AcDbEntity
  8
DETAIL
  6
CONTINUOUS
100
AcDbLine
 10
1864.925308083908
 20
2010.188875142233
 30
0.0
 11
1859.92530779473
 21
2006.855541616102
 31
0.0
  0
ARC
  5
15F7B
330
1E
100
AcDbEntity
  8
DETAIL
  6
CONTINUOUS
100
AcDbCircle
 10
1750.739316546112
 20
2003.199637901939
 30
0.0
 40
0.4995006251256028
100
AcDbArc
 50
90.50007161764732
 51
179.9999285557714
  0
LINE
  5
15F82
330
1E
100
AcDbEntity
  8
DETAIL
  6
CONTINUOUS
100
AcDbLine
 10
1750.734957011835
 20
2003.699119502163
 30
0.0
 11
1751.778244687066
 21
2003.708224135773
 31
0.0
  0
LINE
  5
16026
330
1E
100
AcDbEntity
  8
DETAIL
  6
CONTINUOUS
100
AcDbLine
 10
1751.778417335628
 20
2002.163307370901
 30
0.0
 11
1859.925307387658
 21
2002.163307370901
 31
0.0
  0
LINE
  5
160AB
330
1E
100
AcDbEntity
  8
DETAIL
  6
CONTINUOUS
100
AcDbLine
 10
1592.897315920976
 20
2336.558126738702
 30
0.0
 11
1592.897315920976
 21
2078.638487897582
 31
0.0
  0
LINE
  5
160AC
330
1E
100
AcDbEntity
  8
DETAIL
  6
CONTINUOUS
100
AcDbLine
 10
1564.925336339474
 20
2335.885781233613
 30
0.0
 11
1564.925315923588
 21
2100.55545963545
 31
0.0
  0
LINE
  5
160AD
330
1E
100
AcDbEntity
  8
DETAIL
  6
CONTINUOUS
100
AcDbLine
 10
1591.398815920986
 20
2117.381771786972
 30
0.0
 11
1591.398815920986
 21
2337.774978597818
 31
0.0
  0
LINE
  5
160AE
330
1E
100
AcDbEntity
  8
DETAIL
  6
CONTINUOUS
100
AcDbLine
 10
1579.365029751654
 20
2337.354749524885
 30
0.0
 11
1579.370473516173
 21
2090.042195236019
 31
0.0
  0
LINE
  5
160AF
330
1E
100
AcDbEntity
  8
DETAIL
  6
CONTINUOUS
100
AcDbLine
 10
1580.327867170841
 20
2337.38837254846
 30
0.0
 11
1580.327867163367
 21
2090.042195236019
 31
0.0
  0
LINE
  5
160B0
330
1E
100
AcDbEntity
  8
DETAIL
  6
CONTINUOUS
100
AcDbLine
 10
1599.890058641199
 20
2342.465031424276
 30
0.0
 11
1599.890058641199
 21
2067.118544082586
 31
0.0
  0
LINE
  5
160B2
330
1E
100
AcDbEntity
  8
DETAIL
  6
CONTINUOUS
100
AcDbLine
 10
1600.372139385646
 20
2332.369131116315
 30
0.0
 11
1600.372126342685
 21
2080.056368737009
 31
0.0
  0
LINE
  5
160B3
330
1E
100
AcDbEntity
  8
DETAIL
  6
CONTINUOUS
100
AcDbLine
 10
1750.239815920989
 20
2001.957325101736
 30
0.0
 11
1750.239815920991
 21
2366.998107260329
 31
0.0
  0
LINE
  5
160B4
330
1E
100
AcDbEntity
  8
DETAIL
  6
CONTINUOUS
100
AcDbLine
 10
1750.721883647589
 20
2359.768437408658
 30
0.0
 11
1750.721883617799
 21
2007.693940538691
 31
0.0
  0
LINE
  5
160B5
330
1E
100
AcDbEntity
  8
DETAIL
  6
CONTINUOUS
100
AcDbLine
 10
1751.778417335628
 20
2002.163307370901
 30
0.0
 11
1751.738315920978
 21
2361.004107370902
 31
0.0
  0
SPLINE
  5
160BF
330
1E
100
AcDbEntity
  8
DETAIL
  6
CONTINUOUS
100
AcDbSpline
 70
     0
 71
     3
 72
    11
 73
     7
 74
     5
 42
0.0000000001
 43
0.0000000001
 44
0.00000001
 40
0.0
 40
0.0
 40
0.0
 40
0.0
 40
2.970526139264431
 40
5.941052278544585
 40
13.36044691111384
 40
23.73430932762266
 40
23.73430932762266
 40
23.73430932762266
 40
23.73430932762266
 10
1564.925315923588
 20
2100.55545963545
 30
0.0
 10
1565.515412691194
 20
2099.760328773558
 30
0.0
 10
1566.695606218052
 20
2098.170067043566
 30
0.0
 10
1569.349666821968
 20
2094.593830622391
 30
0.0
 10
1573.474404420003
 20
2089.035917844504
 30
0.0
 10
1577.009045279744
 20
2084.273135950268
 30
0.0
 10
1579.069819083794
 20
2081.496328763078
 30
0.0
 11
1564.925315923588
 21
2100.55545963545
 31
0.0
 11
1566.69560621817
 21
2098.17006704366
 31
0.0
 11
1568.465896478403
 21
2095.78467442636
 31
0.0
 11
1572.887497670584
 21
2089.826750323865
 31
0.0
 11
1579.069819083794
 21
2081.496328763078
 31
0.0
  0
LINE
  5
160F2
330
1E
100
AcDbEntity
  8
DETAIL
  6
CONTINUOUS
100
AcDbLine
 10
1580.355520293021
 20
2079.879260027268
 30
0.0
 11
1591.398815920986
 21
2077.421771786974
 31
0.0
  0
LINE
  5
16191
330
1E
100
AcDbEntity
  8
DETAIL
  6
CONTINUOUS
100
AcDbLine
 10
1632.228744584194
 20
2124.808746888751
 30
0.0
 11
1644.2167445842
 21
2124.808746888751
 31
0.0
  0
LINE
  5
16192
330
1E
100
AcDbEntity
  8
DETAIL
  6
CONTINUOUS
100
AcDbLine
 10
1644.2167440304
 20
2121.74012712905
 30
0.0
 11
1632.228744027242
 21
2121.740127129052
 31
0.0
  0
LINE
  5
16193
330
1E
100
AcDbEntity
  8
DETAIL
  6
CONTINUOUS
100
AcDbLine
 10
1632.228741323329
 20
2121.915949430684
 30
0.0
 11
1644.216741258235
 21
2121.915036028552
 31
0.0
  0
LINE
  5
16194
330
1E
100
AcDbEntity
  8
DETAIL
  6
CONTINUOUS
100
AcDbLine
 10
1644.216741812979
 20
2124.633837989251
 30
0.0
 11
1632.228744584194
 21
2124.633837989251
 31
0.0
  0
LINE
  5
161A5
330
1E
100
AcDbEntity
  8
DETAIL
  6
CONTINUOUS
100
AcDbLine
 10
1632.228741323329
 20
2121.915949430684
 30
0.0
 11
1632.228744027242
 21
2121.740127129052
 31
0.0
  0
LINE
  5
161A6
330
1E
100
AcDbEntity
  8
DETAIL
  6
CONTINUOUS
100
AcDbLine
 10
1632.228744584194
 20
2124.633837989251
 30
0.0
 11
1632.228744584194
 21
2124.808746888751
 31
0.0
  0
LINE
  5
161B9
330
1E
100
AcDbEntity
  8
DETAIL
  6
CONTINUOUS
100
AcDbLine
 10
1644.216741258235
 20
2121.915036028552
 30
0.0
 11
1644.2167440304
 21
2121.74012712905
 31
0.0
  0
LINE
  5
161BB
330
1E
100
AcDbEntity
  8
DETAIL
  6
CONTINUOUS
100
AcDbLine
 10
1644.216741812979
 20
2124.633837989251
 30
0.0
 11
1644.2167445842
 21
2124.808746888751
 31
0.0
  0
LINE
  5
161D1
330
1E
100
AcDbEntity
  8
DETAIL
  6
CONTINUOUS
100
AcDbLine
 10
1579.364976945975
 20
2284.451417408198
 30
0.0
 11
1580.327867170937
 21
2284.451417408197
 31
0.0
  0
SPLINE
  5
161D4
330
1E
100
AcDbEntity
  8
DETAIL
  6
CONTINUOUS
100
AcDbSpline
210
0.0
220
0.0
230
1.0
 70
    24
 71
     3
 72
     9
 73
     5
 74
     3
 42
0.0000000001
 43
0.0000000001
 44
0.00000001
 40
0.0
 40
0.0
 40
0.0
 40
0.0
 40
0.2673451852406488
 40
0.534690370480748
 40
0.534690370480748
 40
0.534690370480748
 40
0.534690370480748
 10
1591.398815920991
 20
2337.575178597819
 30
0.0
 10
1591.487876696249
 20
2337.572068527014
 30
0.0
 10
1591.665998246767
 20
2337.565848385406
 30
0.0
 10
1591.844119797286
 20
2337.559628243801
 30
0.0
 10
1591.933180572544
 20
2337.556518172998
 30
0.0
 11
1591.398815920991
 21
2337.575178597819
 31
0.0
 11
1591.665998246767
 21
2337.565848385407
 31
0.0
 11
1591.933180572544
 21
2337.556518172998
 31
0.0
  0
ARC
  5
161D6
330
1E
100
AcDbEntity
  8
DETAIL
  6
CONTINUOUS
100
AcDbCircle
 10
1565.924639399085
 20
2335.885488572419
 30
0.0
 40
0.9993031024588942
100
AcDbArc
 50
92.01678018105921
 51
179.9832200546109
  0
LINE
  5
161D9
330
1E
100
AcDbEntity
  8
DETAIL
  6
CONTINUOUS
100
AcDbLine
 10
1591.398815920986
 20
2337.774978597818
 30
0.0
 11
1565.889471738232
 21
2336.884172669726
 31
0.0
  0
ARC
  5
161F2
330
1E
100
AcDbEntity
  8
DETAIL
  6
CONTINUOUS
100
AcDbCircle
 10
1600.389558617229
 20
2342.465031448705
 30
0.0
 40
0.4994999760291364
100
AcDbArc
 50
108.8407701090489
 51
180.0000028022262
  0
ARC
  5
161FC
330
1E
100
AcDbEntity
  8
DETAIL
  6
CONTINUOUS
100
AcDbCircle
 10
1750.731009394643
 20
2365.759041869473
 30
0.0
 40
0.4995349248835204
100
AcDbArc
 50
190.4853203656529
 51
268.9532302793339
  0
LINE
  5
1623E
330
1E
100
AcDbEntity
  8
DETAIL
  6
CONTINUOUS
100
AcDbLine
 10
1857.632142462182
 20
2358.356843826145
 30
0.0
 11
1857.632281355935
 21
2135.252675371524
 31
0.0
  0
LINE
  5
1623F
330
1E
100
AcDbEntity
  8
DETAIL
  6
CONTINUOUS
100
AcDbLine
 10
1782.764894243006
 20
2361.004107370902
 30
0.0
 11
1782.764894243006
 21
2134.028968751227
 31
0.0
  0
LINE
  5
16240
330
1E
100
AcDbEntity
  8
DETAIL
  6
CONTINUOUS
100
AcDbLine
 10
1772.192789306391
 20
2007.957507370903
 30
0.0
 11
1772.192749077727
 21
2361.004107367971
 31
0.0
  0
LINE
  5
16241
330
1E
100
AcDbEntity
  8
DETAIL
  6
CONTINUOUS
100
AcDbLine
 10
1786.954906819885
 20
2361.004107370902
 30
0.0
 11
1786.954906819885
 21
2134.097454460788
 31
0.0
  0
LINE
  5
16242
330
1E
100
AcDbEntity
  8
DETAIL
  6
CONTINUOUS
100
AcDbLine
 10
1771.145278846253
 20
2361.004107370902
 30
0.0
 11
1771.145278846253
 21
2007.957507370903
 31
0.0
  0
LINE
  5
16247
330
1E
100
AcDbEntity
  8
DETAIL
  6
CONTINUOUS
100
AcDbLine
 10
1786.954906819885
 20
2133.871603283322
 30
0.0
 11
1786.954906819885
 21
2002.163307370901
 31
0.0
  0
LINE
  5
16248
330
1E
100
AcDbEntity
  8
DETAIL
  6
CONTINUOUS
100
AcDbLine
 10
1782.764894243006
 20
2133.795623319804
 30
0.0
 11
1782.764894243006
 21
2007.957507370903
 31
0.0
  0
LINE
  5
16249
330
1E
100
AcDbEntity
  8
DETAIL
  6
CONTINUOUS
100
AcDbLine
 10
1771.145278846253
 20
2007.957507370903
 30
0.0
 11
1771.145278846253
 21
2133.56835747878
 31
0.0
  0
LINE
  5
1624A
330
1E
100
AcDbEntity
  8
DETAIL
  6
CONTINUOUS
100
AcDbLine
 10
1772.192789306391
 20
2007.957507370903
 30
0.0
 11
1772.192781990476
 21
2133.589071374452
 31
0.0
  0
LINE
  5
1624B
330
1E
100
AcDbEntity
  8
DETAIL
  6
CONTINUOUS
100
AcDbLine
 10
1857.632315920977
 20
2086.887226175834
 30
0.0
 11
1857.632315920977
 21
2135.134586148195
 31
0.0
  0
LINE
  5
1624E
330
1E
100
AcDbEntity
  8
DETAIL
  6
CONTINUOUS
100
AcDbLine
 10
1751.777769818354
 20
2007.957507370903
 30
0.0
 11
1859.599664387173
 21
2007.957507370903
 31
0.0
  0
LINE
  5
1624F
330
1E
100
AcDbEntity
  8
DETAIL
  6
CONTINUOUS
100
AcDbLine
 10
1804.685315920983
 20
2009.946788565972
 30
0.0
 11
1859.009226353966
 21
2009.955528758176
 31
0.0
  0
LINE
  5
16250
330
1E
100
AcDbEntity
  8
DETAIL
  6
CONTINUOUS
100
AcDbLine
 10
1804.685331152906
 20
2010.954507370902
 30
0.0
 11
1858.714016817635
 21
2010.954507370902
 31
0.0
  0
LINE
  5
16251
330
1E
100
AcDbEntity
  8
DETAIL
  6
CONTINUOUS
100
AcDbLine
 10
1857.632315920977
 20
2086.887226175834
 30
0.0
 11
1804.685315920983
 21
2086.887226175834
 31
0.0
  0
LINE
  5
16252
330
1E
100
AcDbEntity
  8
DETAIL
  6
CONTINUOUS
100
AcDbLine
 10
1804.685239761371
 20
2076.888507370902
 30
0.0
 11
1857.627956850527
 21
2076.888507370902
 31
0.0
  0
LINE
  5
16253
330
1E
100
AcDbEntity
  8
DETAIL
  6
CONTINUOUS
100
AcDbLine
 10
1804.685227298889
 20
2085.879507370911
 30
0.0
 11
1857.627956850527
 21
2085.879507370902
 31
0.0
  0
LINE
  5
16254
330
1E
100
AcDbEntity
  8
DETAIL
  6
CONTINUOUS
100
AcDbLine
 10
1804.685315920983
 20
2075.880788565972
 30
0.0
 11
1857.632315920977
 21
2075.88078856596
 31
0.0
  0
LINE
  5
16255
330
1E
100
AcDbEntity
  8
DETAIL
  6
CONTINUOUS
100
AcDbLine
 10
1792.697315920976
 20
2064.900507370894
 30
0.0
 11
1792.688597116057
 21
2021.943507370903
 31
0.0
  0
LINE
  5
16256
330
1E
100
AcDbEntity
  8
DETAIL
  6
CONTINUOUS
100
AcDbLine
 10
1793.705034725919
 20
2021.943507370902
 30
0.0
 11
1793.705034725919
 21
2064.900507370904
 31
0.0
  0
LINE
  5
16286
330
1E
100
AcDbEntity
  8
DETAIL
  6
CONTINUOUS
100
AcDbLine
 10
1792.697315920976
 20
2074.890507370894
 30
0.0
 11
1792.697315920976
 21
2064.900507370894
 31
0.0
  0
LINE
  5
16289
330
1E
100
AcDbEntity
  8
DETAIL
  6
CONTINUOUS
100
AcDbLine
 10
1793.705034725919
 20
2069.733176091375
 30
0.0
 11
1793.696315920985
 21
2074.890507370902
 31
0.0
  0
LINE
  5
16293
330
1E
100
AcDbEntity
  8
DETAIL
  6
CONTINUOUS
100
AcDbLine
 10
1857.632315920977
 20
2014.614944884425
 30
0.0
 11
1857.632315920977
 21
2086.887226175834
 31
0.0
  0
LINE
  5
1629A
330
1E
100
AcDbEntity
  8
DETAIL
  6
CONTINUOUS
100
AcDbLine
 10
1859.92530779473
 20
2006.855541616102
 30
0.0
 11
1857.632315920977
 21
2014.614944884425
 31
0.0
  0
LINE
  5
1639E
330
1E
100
AcDbEntity
  8
DETAIL
  6
CONTINUOUS
100
AcDbLine
 10
1853.628012406039
 20
2366.798307370902
 30
0.0
 11
1859.925337869523
 21
2353.522354146571
 31
0.0
  0
LINE
  5
163AD
330
1E
100
AcDbEntity
  8
DETAIL
  6
CONTINUOUS
100
AcDbLine
 10
1864.925337114581
 20
2344.820307370901
 30
0.0
 11
1857.632151177785
 21
2344.820307370901
 31
0.0
  0
LINE
  5
16439
330
1E
100
AcDbEntity
  8
DETAIL
  6
CONTINUOUS
100
AcDbLine
 10
1864.925339021261
 20
2366.798307370902
 30
0.0
 11
1864.925308083908
 21
2010.188875142233
 31
0.0
  0
LINE
  5
1643B
330
1E
100
AcDbEntity
  8
DETAIL
  6
CONTINUOUS
100
AcDbLine
 10
1859.925337869523
 20
2353.522354146571
 30
0.0
 11
1859.925307387658
 21
2002.163307370901
 31
0.0
  0
ARC
  5
1753E
330
1E
100
AcDbEntity
  8
DETAIL
  6
CONTINUOUS
100
AcDbCircle
 10
1644.218926864547
 20
2123.274437008454
 30
0.0
 40
1.359402736880692
100
AcDbArc
 50
269.9078815512734
 51
90.09209506730631
  0
ARC
  5
1753F
330
1E
100
AcDbEntity
  8
DETAIL
  6
CONTINUOUS
100
AcDbCircle
 10
1644.214956733711
 20
2123.274437009226
 30
0.0
 40
1.534310921170581
100
AcDbArc
 50
270.0667430433274
 51
89.93323627744542
  0
ARC
  5
17540
330
1E
100
AcDbEntity
  8
DETAIL
  6
CONTINUOUS
100
AcDbCircle
 10
1632.225134260091
 20
2123.274893714298
 30
0.0
 40
1.358949070740981
100
AcDbArc
 50
89.84778195040702
 51
270.1520805650336
  0
ARC
  5
17541
330
1E
100
AcDbEntity
  8
DETAIL
  6
CONTINUOUS
100
AcDbCircle
 10
1632.230572873476
 20
2123.274437008569
 30
0.0
 40
1.534310969479913
100
AcDbArc
 50
90.06827382655833
 51
269.9317053728977
  0
LINE
  5
17542
330
1E
100
AcDbEntity
  8
DETAIL
  6
CONTINUOUS
100
AcDbLine
 10
1632.228744581406
 20
2118.639837989251
 30
0.0
 11
1632.228744581406
 21
2118.814746888753
 31
0.0
  0
LINE
  5
17543
330
1E
100
AcDbEntity
  8
DETAIL
  6
CONTINUOUS
100
AcDbLine
 10
1632.228741320543
 20
2115.921949430685
 30
0.0
 11
1632.228744024455
 21
2115.746127129053
 31
0.0
  0
ARC
  5
17544
330
1E
100
AcDbEntity
  8
DETAIL
  6
CONTINUOUS
100
AcDbCircle
 10
1632.23057287069
 20
2117.28043700857
 30
0.0
 40
1.534310969479913
100
AcDbArc
 50
90.06827382655833
 51
269.9317053728977
  0
ARC
  5
17545
330
1E
100
AcDbEntity
  8
DETAIL
  6
CONTINUOUS
100
AcDbCircle
 10
1632.225134257305
 20
2117.280893714298
 30
0.0
 40
1.358949070740981
100
AcDbArc
 50
89.84778195040702
 51
270.1520805650336
  0
LINE
  5
17546
330
1E
100
AcDbEntity
  8
DETAIL
  6
CONTINUOUS
100
AcDbLine
 10
1644.216741810192
 20
2118.639837989251
 30
0.0
 11
1644.216744581412
 21
2118.814746888753
 31
0.0
  0
LINE
  5
17547
330
1E
100
AcDbEntity
  8
DETAIL
  6
CONTINUOUS
100
AcDbLine
 10
1644.216741255448
 20
2115.921036028552
 30
0.0
 11
1644.216744027612
 21
2115.746127129052
 31
0.0
  0
ARC
  5
17548
330
1E
100
AcDbEntity
  8
DETAIL
  6
CONTINUOUS
100
AcDbCircle
 10
1644.214956730925
 20
2117.280437009224
 30
0.0
 40
1.534310921170581
100
AcDbArc
 50
270.0667430433274
 51
89.93323627744542
  0
ARC
  5
17549
330
1E
100
AcDbEntity
  8
DETAIL
  6
CONTINUOUS
100
AcDbCircle
 10
1644.21892686176
 20
2117.280437008456
 30
0.0
 40
1.359402736880692
100
AcDbArc
 50
269.9078815512734
 51
90.09209506730631
  0
LINE
  5
1754A
330
1E
100
AcDbEntity
  8
DETAIL
  6
CONTINUOUS
100
AcDbLine
 10
1644.216741810192
 20
2118.639837989251
 30
0.0
 11
1632.228744581406
 21
2118.639837989251
 31
0.0
  0
LINE
  5
1754B
330
1E
100
AcDbEntity
  8
DETAIL
  6
CONTINUOUS
100
AcDbLine
 10
1632.228741320543
 20
2115.921949430685
 30
0.0
 11
1644.216741255448
 21
2115.921036028552
 31
0.0
  0
LINE
  5
1754C
330
1E
100
AcDbEntity
  8
DETAIL
  6
CONTINUOUS
100
AcDbLine
 10
1644.216744027612
 20
2115.746127129052
 30
0.0
 11
1632.228744024455
 21
2115.746127129053
 31
0.0
  0
LINE
  5
1754D
330
1E
100
AcDbEntity
  8
DETAIL
  6
CONTINUOUS
100
AcDbLine
 10
1632.228744581406
 20
2118.814746888753
 30
0.0
 11
1644.216744581412
 21
2118.814746888753
 31
0.0
  0
LINE
  5
1754E
330
1E
100
AcDbEntity
  8
DETAIL
  6
CONTINUOUS
100
AcDbLine
 10
1632.228744582969
 20
2112.646751391383
 30
0.0
 11
1632.228744582969
 21
2112.821660290884
 31
0.0
  0
LINE
  5
1754F
330
1E
100
AcDbEntity
  8
DETAIL
  6
CONTINUOUS
100
AcDbLine
 10
1632.228741322105
 20
2109.928862832816
 30
0.0
 11
1632.228744026019
 21
2109.753040531184
 31
0.0
  0
ARC
  5
17550
330
1E
100
AcDbEntity
  8
DETAIL
  6
CONTINUOUS
100
AcDbCircle
 10
1632.230572872253
 20
2111.287350410703
 30
0.0
 40
1.534310969479913
100
AcDbArc
 50
90.06827382655833
 51
269.9317053728977
  0
ARC
  5
17551
330
1E
100
AcDbEntity
  8
DETAIL
  6
CONTINUOUS
100
AcDbCircle
 10
1632.225134258868
 20
2111.28780711643
 30
0.0
 40
1.358949070740981
100
AcDbArc
 50
89.84778195040702
 51
270.1520805650336
  0
LINE
  5
17552
330
1E
100
AcDbEntity
  8
DETAIL
  6
CONTINUOUS
100
AcDbLine
 10
1644.216741811755
 20
2112.646751391383
 30
0.0
 11
1644.216744582976
 21
2112.821660290884
 31
0.0
  0
LINE
  5
17553
330
1E
100
AcDbEntity
  8
DETAIL
  6
CONTINUOUS
100
AcDbLine
 10
1644.21674125701
 20
2109.927949430685
 30
0.0
 11
1644.216744029176
 21
2109.753040531182
 31
0.0
  0
ARC
  5
17554
330
1E
100
AcDbEntity
  8
DETAIL
  6
CONTINUOUS
100
AcDbCircle
 10
1644.214956732488
 20
2111.287350411357
 30
0.0
 40
1.534310921170581
100
AcDbArc
 50
270.0667430433274
 51
89.93323627744542
  0
ARC
  5
17555
330
1E
100
AcDbEntity
  8
DETAIL
  6
CONTINUOUS
100
AcDbCircle
 10
1644.218926863322
 20
2111.287350410588
 30
0.0
 40
1.359402736880692
100
AcDbArc
 50
269.9078815512734
 51
90.09209506730631
  0
LINE
  5
17556
330
1E
100
AcDbEntity
  8
DETAIL
  6
CONTINUOUS
100
AcDbLine
 10
1644.216741811755
 20
2112.646751391383
 30
0.0
 11
1632.228744582969
 21
2112.646751391383
 31
0.0
  0
LINE
  5
17557
330
1E
100
AcDbEntity
  8
DETAIL
  6
CONTINUOUS
100
AcDbLine
 10
1632.228741322105
 20
2109.928862832816
 30
0.0
 11
1644.21674125701
 21
2109.927949430685
 31
0.0
  0
LINE
  5
17558
330
1E
100
AcDbEntity
  8
DETAIL
  6
CONTINUOUS
100
AcDbLine
 10
1644.216744029176
 20
2109.753040531182
 30
0.0
 11
1632.228744026019
 21
2109.753040531184
 31
0.0
  0
LINE
  5
17559
330
1E
100
AcDbEntity
  8
DETAIL
  6
CONTINUOUS
100
AcDbLine
 10
1632.228744582969
 20
2112.821660290884
 30
0.0
 11
1644.216744582976
 21
2112.821660290884
 31
0.0
  0
LINE
  5
1755B
330
1E
100
AcDbEntity
  8
DETAIL
  6
CONTINUOUS
100
AcDbLine
 10
1579.365051626235
 20
2336.360977944676
 30
0.0
 11
1564.925336339475
 21
2335.885781213919
 31
0.0
  0
ARC
  5
1755C
330
1E
100
AcDbEntity
  8
DETAIL
  6
CONTINUOUS
100
AcDbCircle
 10
1745.271888971323
 20
1980.504293848014
 30
0.0
 40
380.532260308953
100
AcDbArc
 50
89.25197056047982
 51
112.3821160155495
  0
ARC
  5
1755D
330
1E
100
AcDbEntity
  8
DETAIL
  6
CONTINUOUS
100
AcDbCircle
 10
1745.487571028325
 20
1916.950705116422
 30
0.0
 40
450.0724919476861
100
AcDbArc
 50
89.395011603391
 51
108.8291030099858
  0
LINE
  5
1755E
330
1E
100
AcDbEntity
  8
DETAIL
  6
CONTINUOUS
100
AcDbLine
 10
1856.376437516008
 20
2361.004107370902
 30
0.0
 11
1751.738315920978
 21
2361.004107370902
 31
0.0
  0
LINE
  5
1755F
330
1E
100
AcDbEntity
  8
DETAIL
  6
CONTINUOUS
100
AcDbLine
 10
1751.738315920978
 20
2361.004107370902
 30
0.0
 11
1751.738315920978
 21
2366.798307370902
 31
0.0
  0
LINE
  5
17560
330
1E
100
AcDbEntity
  8
DETAIL
  6
CONTINUOUS
100
AcDbLine
 10
1751.738315920978
 20
2366.798307370902
 30
0.0
 11
1864.925339021261
 21
2366.798307370902
 31
0.0
  0
LINE
  5
17561
330
1E
100
AcDbEntity
  8
DETAIL
  6
CONTINUOUS
100
AcDbLine
 10
1751.738315920978
 20
2365.224095710591
 30
0.0
 11
1750.721883610045
 21
2365.259590309026
 31
0.0
  0
LINE
  5
17562
330
1E
100
AcDbEntity
  8
DETAIL
  6
CONTINUOUS
100
AcDbLine
 10
1750.721883610045
 20
2365.259590309026
 30
0.0
 11
1750.721883647587
 21
2359.768437408678
 31
0.0
  0
LINE
  5
17563
330
1E
100
AcDbEntity
  8
DETAIL
  6
CONTINUOUS
100
AcDbLine
 10
1750.721883647587
 20
2359.768437408678
 30
0.0
 11
1751.738278252815
 21
2359.732944126934
 31
0.0
  0
LINE
  5
17564
330
1E
100
AcDbEntity
  8
DETAIL
  6
CONTINUOUS
100
AcDbLine
 10
1750.721883647587
 20
2359.768437408678
 30
0.0
 11
1750.239815920993
 21
2359.768440588644
 31
0.0
  0
LINE
  5
17565
330
1E
100
AcDbEntity
  8
DETAIL
  6
CONTINUOUS
100
AcDbLine
 10
1786.954906819885
 20
2361.004107370902
 30
0.0
 11
1786.954906819885
 21
2366.798307370902
 31
0.0
  0
ARC
  5
17566
330
1E
100
AcDbEntity
  8
DETAIL
  6
CONTINUOUS
100
AcDbCircle
 10
1777.316280018673
 20
2361.840942397041
 30
0.0
 40
5.512503045497255
100
AcDbArc
 50
351.2683566266711
 51
64.06551779600653
  0
ARC
  5
17567
330
1E
100
AcDbEntity
  8
DETAIL
  6
CONTINUOUS
100
AcDbCircle
 10
1765.733112937694
 20
2361.92378618682
 30
0.0
 40
6.524776485525462
100
AcDbArc
 50
351.8970750028456
 51
48.33795093511771
  0
ARC
  5
17568
330
1E
100
AcDbEntity
  8
DETAIL
  6
CONTINUOUS
100
AcDbCircle
 10
1760.025621840699
 20
2361.938044540737
 30
0.0
 40
11.15880865318406
100
AcDbArc
 50
355.1990100331896
 51
25.82054578291649
  0
ARC
  5
1756F
330
1E
100
AcDbEntity
  8
DETAIL
  6
CONTINUOUS
100
AcDbCircle
 10
1804.778590176101
 20
2064.807233708589
 30
0.0
 40
12.0816343101258
100
AcDbArc
 50
90.44270815211088
 51
179.5576558483618
  0
ARC
  5
17570
330
1E
100
AcDbEntity
  8
DETAIL
  6
CONTINUOUS
100
AcDbCircle
 10
1804.588113068614
 20
2064.997710223277
 30
0.0
 40
10.88351242052402
100
AcDbArc
 50
89.48827299260875
 51
180.5117270074008
  0
ARC
  5
17571
330
1E
100
AcDbEntity
  8
DETAIL
  6
CONTINUOUS
100
AcDbCircle
 10
1804.785342114077
 20
2074.799269510078
 30
0.0
 40
12.08837051021266
100
AcDbArc
 50
90.47410393235535
 51
179.567551806479
  0
ARC
  5
17572
330
1E
100
AcDbEntity
  8
DETAIL
  6
CONTINUOUS
100
AcDbCircle
 10
1804.685315921167
 20
2074.890507371089
 30
0.0
 40
10.98900000018147
100
AcDbArc
 50
90.00046195599244
 51
180.0000000009768
  0
ARC
  5
17573
330
1E
100
AcDbEntity
  8
DETAIL
  6
CONTINUOUS
100
AcDbCircle
 10
1804.784390035367
 20
2022.042581485288
 30
0.0
 40
12.09619866020372
100
AcDbArc
 50
180.4692872730094
 51
269.5307127270032
  0
ARC
  5
17574
330
1E
100
AcDbEntity
  8
DETAIL
  6
CONTINUOUS
100
AcDbCircle
 10
1804.689674458068
 20
2021.939147109772
 30
0.0
 40
10.98464059753726
100
AcDbArc
 50
179.9772568979439
 51
269.9773453615758
  0
LINE
  5
17575
330
1E
100
AcDbEntity
  8
DETAIL
  6
CONTINUOUS
100
AcDbLine
 10
1857.632281355935
 20
2135.252675371524
 30
0.0
 11
1751.763737623526
 21
2133.522255186681
 31
0.0
  0
LINE
  5
17576
330
1E
100
AcDbEntity
  8
DETAIL
  6
CONTINUOUS
100
AcDbLine
 10
1751.763769896968
 20
2133.23346169055
 30
0.0
 11
1857.61368346327
 21
2135.152900456791
 31
0.0
  0
LINE
  5
17578
330
1E
100
AcDbEntity
  8
DETAIL
  6
CONTINUOUS
100
AcDbLine
 10
1857.61368346327
 20
2135.152900456791
 30
0.0
 11
1857.632315920977
 21
2135.134586148195
 31
0.0
  0
LINE
  5
1757A
330
1E
100
AcDbEntity
  8
DETAIL
  6
CONTINUOUS
100
AcDbLine
 10
1750.721883617863
 20
2007.693940538691
 30
0.0
 11
1750.734957011835
 21
2003.699119502163
 31
0.0
  0
LINE
  5
1757B
330
1E
100
AcDbEntity
  8
DETAIL
  6
CONTINUOUS
100
AcDbLine
 10
1750.239815920989
 20
2003.199638524784
 30
0.0
 11
1751.778300158855
 21
2003.211844111133
 31
0.0
  0
ARC
  5
1757C
330
1E
100
AcDbEntity
  8
DETAIL
  6
CONTINUOUS
100
AcDbCircle
 10
1743.865052994362
 20
2193.283901274742
 30
0.0
 40
191.4327462908466
100
AcDbArc
 50
221.2280995908781
 51
271.9083179660512
  0
ARC
  5
1757D
330
1E
100
AcDbEntity
  8
DETAIL
  6
CONTINUOUS
100
AcDbCircle
 10
1744.075256381893
 20
2186.929256724643
 30
0.0
 40
179.0876985442594
100
AcDbArc
 50
216.6384050044328
 51
271.9726258951729
  0
LINE
  5
1757F
330
1E
100
AcDbEntity
  8
DETAIL
  6
CONTINUOUS
100
AcDbLine
 10
1600.372126342685
 20
2080.056368737009
 30
0.0
 11
1599.890058641199
 21
2080.05636873689
 31
0.0
  0
LINE
  5
17580
330
1E
100
AcDbEntity
  8
DETAIL
  6
CONTINUOUS
100
AcDbLine
 10
1600.228250482932
 20
2342.937768068677
 30
0.0
 11
1600.372139385646
 21
2332.369131116316
 31
0.0
  0
ARC
  5
17581
330
1E
100
AcDbEntity
  8
DETAIL
  6
CONTINUOUS
100
AcDbCircle
 10
2556.376859230162
 20
2815.488094124943
 30
0.0
 40
1222.61904870681
100
AcDbArc
 50
215.8372881752768
 51
216.9654009285185
  0
ARC
  5
17582
330
1E
100
AcDbEntity
  8
DETAIL
  6
CONTINUOUS
100
AcDbCircle
 10
1566.423633453918
 20
2100.555399329949
 30
0.0
 40
1.498317531543265
100
AcDbArc
 50
179.9976939129473
 51
216.5792690671612
  0
ARC
  5
17583
330
1E
100
AcDbEntity
  8
DETAIL
  6
CONTINUOUS
100
AcDbCircle
 10
1580.581093218794
 20
2081.437815218629
 30
0.0
 40
1.574794409012918
100
AcDbArc
 50
226.9324843943485
 51
261.7646484438437
  0
ARC
  5
17584
330
1E
100
AcDbEntity
  8
DETAIL
  6
CONTINUOUS
100
AcDbCircle
 10
1580.717349201517
 20
2080.663787824645
 30
0.0
 40
0.8694464275878095
100
AcDbArc
 50
185.5476591961418
 51
243.6063772743481
  0
LINE
  5
17585
330
1E
100
AcDbEntity
  8
DETAIL
  6
CONTINUOUS
100
AcDbLine
 10
1580.327867163369
 20
2090.042195236019
 30
0.0
 11
1579.851975149213
 21
2080.579735221825
 31
0.0
  0
LINE
  5
17586
330
1E
100
AcDbEntity
  8
DETAIL
  6
CONTINUOUS
100
AcDbLine
 10
1579.370473516173
 20
2090.042195236019
 30
0.0
 11
1579.069819083794
 21
2081.496328763078
 31
0.0
  0
LINE
  5
17587
330
1E
100
AcDbEntity
  8
DETAIL
  6
CONTINUOUS
100
AcDbLine
 10
1600.372139385644
 20
2332.369131116315
 30
0.0
 11
1599.890058641199
 21
2332.369131116315
 31
0.0
  0
ARC
  5
17588
330
1E
100
AcDbEntity
  8
DETAIL
  6
CONTINUOUS
100
AcDbCircle
 10
1591.948951578318
 20
2336.607025021935
 30
0.0
 40
0.9496241196077983
100
AcDbArc
 50
357.0484060415143
 51
90.9515908388998
  0
LINE
  5
17589
330
1E
100
AcDbEntity
  8
DETAIL
  6
CONTINUOUS
100
AcDbLine
 10
1592.897315920976
 20
2333.636569459919
 30
0.0
 11
1595.159514059252
 21
2335.348137262792
 31
0.0
  0
LINE
  5
1758A
330
1E
100
AcDbEntity
  8
DETAIL
  6
CONTINUOUS
100
AcDbLine
 10
1595.159514059252
 20
2335.348137262792
 30
0.0
 11
1599.890058641199
 21
2341.766237471686
 31
0.0
  0
LINE
  5
1758B
330
1E
100
AcDbEntity
  8
DETAIL
  6
CONTINUOUS
100
AcDbLine
 10
1599.890058641199
 20
2340.094303379756
 30
0.0
 11
1595.954962183344
 21
2334.755416289564
 31
0.0
  0
LINE
  5
1758C
330
1E
100
AcDbEntity
  8
DETAIL
  6
CONTINUOUS
100
AcDbLine
 10
1595.954962183344
 20
2334.755416289564
 30
0.0
 11
1592.897315920974
 21
2331.660266668078
 31
0.0
  0
LINE
  5
1758D
330
1E
100
AcDbEntity
  8
DETAIL
  6
CONTINUOUS
100
AcDbLine
 10
1591.933180505555
 20
2077.643303379331
 30
0.0
 11
1591.398815920989
 21
2077.621571786973
 31
0.0
  0
LINE
  5
1758E
330
1E
100
AcDbEntity
  8
DETAIL
  6
CONTINUOUS
100
AcDbLine
 10
1591.398815920989
 20
2077.621571786973
 30
0.0
 11
1591.398815920986
 21
2077.421771786974
 31
0.0
  0
ARC
  5
1758F
330
1E
100
AcDbEntity
  8
DETAIL
  6
CONTINUOUS
100
AcDbCircle
 10
1591.92843657668
 20
2078.612519071965
 30
0.0
 40
0.9692273023979907
100
AcDbArc
 50
270.2804380183172
 51
1.535328383689667
  0
LINE
  5
17590
330
1E
100
AcDbEntity
  8
DETAIL
  6
CONTINUOUS
100
AcDbLine
 10
1579.370473516173
 20
2090.042195236019
 30
0.0
 11
1580.327867163367
 21
2090.042195235983
 31
0.0
  0
LINE
  5
17591
330
1E
100
AcDbEntity
  8
DETAIL
  6
CONTINUOUS
100
AcDbLine
 10
1592.897315920976
 20
2086.771521336364
 30
0.0
 11
1598.925923699312
 21
2085.431830718956
 31
0.0
  0
LINE
  5
17592
330
1E
100
AcDbEntity
  8
DETAIL
  6
CONTINUOUS
100
AcDbLine
 10
1598.925923699312
 20
2085.431830718956
 30
0.0
 11
1599.890058641198
 21
2085.431691731393
 31
0.0
  0
LINE
  5
17593
330
1E
100
AcDbEntity
  8
DETAIL
  6
CONTINUOUS
100
AcDbLine
 10
1598.925923699312
 20
2085.431830718956
 30
0.0
 11
1599.107762507132
 21
2080.313313412756
 31
0.0
  0
LINE
  5
17594
330
1E
100
AcDbEntity
  8
DETAIL
  6
CONTINUOUS
100
AcDbLine
 10
1599.107762507132
 20
2080.313313412756
 30
0.0
 11
1592.897315920976
 21
2081.693412654121
 31
0.0
  0
ARC
  5
17595
330
1E
100
AcDbEntity
  8
DETAIL
  6
CONTINUOUS
100
AcDbCircle
 10
1598.891123151299
 20
2079.338152140819
 30
0.0
 40
0.9989354918021067
100
AcDbArc
 50
0.0035354428563128
 51
77.47472785371781
  0
TEXT
  5
17C9A
330
1E
100
AcDbEntity
  8
NOTE
 62
     4
100
AcDbText
 10
1985.862788583206
 20
1811.887269780569
 30
0.0
 40
64.0
  1
D,RL,RG%%C75～%%C80
 41
0.9
100
AcDbText
  0
LINE
  5
17C9B
330
1E
100
AcDbEntity
  8
NOTE
  6
CONTINUOUS
 62
     4
100
AcDbLine
 10
1864.925311447234
 20
2048.957325101735
 30
0.0
 11
1967.817245472136
 21
1785.136409780569
 31
0.0
  0
LINE
  5
17C9C
330
1E
100
AcDbEntity
  8
NOTE
  6
CONTINUOUS
 62
     4
100
AcDbLine
 10
2708.19703005359
 20
1785.136409780569
 30
0.0
 11
1967.817245472136
 21
1785.136409780569
 31
0.0
  0
CIRCLE
  5
17C9E
330
1E
100
AcDbEntity
  8
ARRANGE
  6
CONTINUOUS
 62
     1
100
AcDbCircle
 10
1864.925339021261
 20
2366.798307370902
 30
0.0
 40
40.0
  0
CIRCLE
  5
17C9F
330
1E
100
AcDbEntity
  8
ARRANGE
  6
CONTINUOUS
100
AcDbCircle
 10
1864.925339021261
 20
2366.798307370902
 30
0.0
 40
40.0
  0
POINT
  5
17CA0
330
1E
100
AcDbEntity
  8
ARRANGE
  6
CONTINUOUS
100
AcDbPoint
 10
1864.92538253832
 20
2366.798307370902
 30
0.0
  0
LINE
  5
17CA1
330
1E
100
AcDbEntity
  8
NOTE
  6
CONTINUOUS
 62
     4
100
AcDbLine
 10
1888.498588892649
 20
2016.641679864111
 30
0.0
 11
1864.925311447234
 21
2048.957325101735
 31
0.0
  0
LINE
  5
17CA2
330
1E
100
AcDbEntity
  8
NOTE
  6
CONTINUOUS
 62
     4
100
AcDbLine
 10
1864.925311447234
 20
2048.957325101735
 30
0.0
 11
1869.182543909996
 21
2009.184523117297
 31
0.0
  0
LINE
  5
17CA3
330
1E
100
AcDbEntity
  8
NOTE
  6
DASHDOT
 62
     4
100
AcDbLine
 10
1884.925311447234
 20
2048.957325101735
 30
0.0
 11
1844.925311447234
 21
2048.957325101735
 31
0.0
  0
LINE
  5
17CA4
330
1E
100
AcDbEntity
  8
NOTE
  6
DASHDOT
 62
     4
100
AcDbLine
 10
1864.925311447234
 20
2068.957325101736
 30
0.0
 11
1864.925311447234
 21
2028.957325101736
 31
0.0
  0
TEXT
  5
1810D
330
1E
100
AcDbEntity
  8
ETC
100
AcDbText
 10
2000.438221644928
 20
2588.292388695598
 30
0.0
 40
64.0
  1
PKFY-P63VKM_4
 41
0.7524090863426644
 72
     5
 11
2621.856468955745
 21
2588.292388695598
 31
0.0
100
AcDbText
  0
LINE
  5
18194
330
1E
100
AcDbEntity
  8
SIZE
  6
CONTINUOUS
100
AcDbLine
 10
1770.239815920991
 20
2366.998107260329
 30
0.0
 11
2071.715399956789
 21
2366.998107260329
 31
0.0
  0
LINE
  5
18195
330
1E
100
AcDbEntity
  8
SIZE
  6
CONTINUOUS
100
AcDbLine
 10
1770.23981592099
 20
2001.957325101736
 30
0.0
 11
2071.715399956789
 21
2001.957325101736
 31
0.0
  0
LINE
  5
18196
330
1E
100
AcDbEntity
  8
SIZE
  6
CONTINUOUS
100
AcDbLine
 10
2051.715399956789
 20
2356.998107260328
 30
0.0
 11
2051.715399956789
 21
2011.957325101735
 31
0.0
  0
LINE
  5
1819A
330
1E
100
AcDbEntity
  8
SIZE
  6
CONTINUOUS
100
AcDbLine
 10
1770.23981592099
 20
2001.957325101736
 30
0.0
 11
1984.793655471687
 21
2001.957325101736
 31
0.0
  0
LINE
  5
1819B
330
1E
100
AcDbEntity
  8
SIZE
  6
CONTINUOUS
100
AcDbLine
 10
1904.925311447233
 20
2048.957325101735
 30
0.0
 11
1984.793655471687
 21
2048.957325101735
 31
0.0
  0
LINE
  5
1819C
330
1E
100
AcDbEntity
  8
SIZE
  6
CONTINUOUS
100
AcDbLine
 10
1964.793655471687
 20
1991.957325101736
 30
0.0
 11
1964.793655471687
 21
1981.957325101736
 31
0.0
  0
LINE
  5
1819D
330
1E
100
AcDbEntity
  8
SIZE
  6
CONTINUOUS
100
AcDbLine
 10
1964.793655471687
 20
2058.957325101736
 30
0.0
 11
1964.793655471687
 21
2161.814467958879
 31
0.0
  0
LINE
  5
1819E
330
1E
100
AcDbEntity
  8
SIZE
  6
CONTINUOUS
100
AcDbLine
 10
1964.793655471687
 20
2001.957325101736
 30
0.0
 11
1964.793655471687
 21
2048.957325101735
 31
0.0
  0
LINE
  5
181A2
330
1E
100
AcDbEntity
  8
SIZE
  6
CONTINUOUS
100
AcDbLine
 10
1864.925339021261
 20
2386.7983073709
 30
0.0
 11
1864.925339021261
 21
2531.22412896822
 31
0.0
  0
LINE
  5
181A3
330
1E
100
AcDbEntity
  8
SIZE
  6
CONTINUOUS
100
AcDbLine
 10
1564.925336339474
 20
2355.885781213919
 30
0.0
 11
1564.925336339474
 21
2531.22412896822
 31
0.0
  0
LINE
  5
181A4
330
1E
100
AcDbEntity
  8
SIZE
  6
CONTINUOUS
100
AcDbLine
 10
1854.92533902126
 20
2511.22412896822
 30
0.0
 11
1574.925336339473
 21
2511.22412896822
 31
0.0
  0
TEXT
  5
181A8
330
1E
100
AcDbEntity
  8
SIZE
  6
CONTINUOUS
100
AcDbText
 10
2041.715399956788
 20
2126.62057332389
 30
0.0
 40
50.0
  1
365
 50
90.0
 41
0.9
100
AcDbText
  0
CIRCLE
  5
181A9
330
1E
100
AcDbEntity
  8
SIZE
  6
BYBLOCK
100
AcDbCircle
 10
1964.793655471687
 20
2001.957325101736
 30
0.0
 40
5.0
  0
LINE
  5
181AA
330
1E
100
AcDbEntity
  8
SIZE
  6
BYBLOCK
100
AcDbLine
 10
1964.793655471687
 20
2001.957325101736
 30
0.0
 11
1964.793655471687
 21
1991.957325101736
 31
0.0
  0
CIRCLE
  5
181AB
330
1E
100
AcDbEntity
  8
SIZE
  6
BYBLOCK
100
AcDbCircle
 10
2051.715399956789
 20
2001.957325101736
 30
0.0
 40
5.0
  0
LINE
  5
181AC
330
1E
100
AcDbEntity
  8
SIZE
  6
BYBLOCK
100
AcDbLine
 10
2051.715399956789
 20
2001.957325101736
 30
0.0
 11
2051.715399956789
 21
2011.957325101735
 31
0.0
  0
TEXT
  5
181AD
330
1E
100
AcDbEntity
  8
SIZE
  6
CONTINUOUS
100
AcDbText
 10
1954.793655471687
 20
2078.957325101737
 30
0.0
 40
50.0
  1
47
 50
90.0
 41
0.9
100
AcDbText
  0
CIRCLE
  5
181AE
330
1E
100
AcDbEntity
  8
SIZE
  6
BYBLOCK
100
AcDbCircle
 10
1964.793655471687
 20
2048.957325101735
 30
0.0
 40
5.0
  0
LINE
  5
181AF
330
1E
100
AcDbEntity
  8
SIZE
  6
BYBLOCK
100
AcDbLine
 10
1964.793655471687
 20
2048.957325101735
 30
0.0
 11
1964.793655471687
 21
2058.957325101736
 31
0.0
  0
TEXT
  5
181B0
330
1E
100
AcDbEntity
  8
SIZE
  6
CONTINUOUS
100
AcDbText
 10
1657.068194823224
 20
2521.224128968221
 30
0.0
 40
50.0
  1
300
 41
0.9
100
AcDbText
  0
CIRCLE
  5
181B1
330
1E
100
AcDbEntity
  8
SIZE
  6
BYBLOCK
100
AcDbCircle
 10
1564.925336339474
 20
2511.22412896822
 30
0.0
 40
5.0
  0
LINE
  5
181B2
330
1E
100
AcDbEntity
  8
SIZE
  6
BYBLOCK
100
AcDbLine
 10
1564.925336339474
 20
2511.22412896822
 30
0.0
 11
1574.925336339473
 21
2511.22412896822
 31
0.0
  0
CIRCLE
  5
181B3
330
1E
100
AcDbEntity
  8
SIZE
  6
BYBLOCK
100
AcDbCircle
 10
2051.715399956789
 20
2366.998107260329
 30
0.0
 40
5.0
  0
LINE
  5
181B4
330
1E
100
AcDbEntity
  8
SIZE
  6
BYBLOCK
100
AcDbLine
 10
2051.715399956789
 20
2366.998107260329
 30
0.0
 11
2051.715399956789
 21
2356.998107260328
 31
0.0
  0
CIRCLE
  5
181B5
330
1E
100
AcDbEntity
  8
SIZE
  6
BYBLOCK
100
AcDbCircle
 10
1864.925339021261
 20
2511.22412896822
 30
0.0
 40
5.0
  0
LINE
  5
181B6
330
1E
100
AcDbEntity
  8
SIZE
  6
BYBLOCK
100
AcDbLine
 10
1864.925339021261
 20
2511.22412896822
 30
0.0
 11
1854.92533902126
 21
2511.22412896822
 31
0.0
  0
LINE
  5
181B8
330
1E
100
AcDbEntity
  8
OUTLINE
  6
CONTINUOUS
100
AcDbLine
 10
1864.925339021261
 20
2366.798307370902
 30
0.0
 11
1864.925308083908
 21
2010.188875142233
 31
0.0
  0
LINE
  5
181C6
330
1E
100
AcDbEntity
  8
OUTLINE
  6
CONTINUOUS
100
AcDbLine
 10
1564.925336339474
 20
2335.885781233613
 30
0.0
 11
1564.925315923588
 21
2100.55545963545
 31
0.0
  0
ARC
  5
181C9
330
1E
100
AcDbEntity
  8
OUTLINE
  6
CONTINUOUS
100
AcDbCircle
 10
1743.865052994362
 20
2193.283901274742
 30
0.0
 40
191.4327462908466
100
AcDbArc
 50
221.2280995908781
 51
271.9083179660512
  0
ARC
  5
181D8
330
1E
100
AcDbEntity
  8
OUTLINE
  6
CONTINUOUS
100
AcDbCircle
 10
1598.891123151299
 20
2079.338152140819
 30
0.0
 40
0.9989354918021067
100
AcDbArc
 50
0.0035354428563128
 51
77.47472785371781
  0
LINE
  5
181D9
330
1E
100
AcDbEntity
  8
OUTLINE
  6
CONTINUOUS
100
AcDbLine
 10
1599.107762507132
 20
2080.313313412756
 30
0.0
 11
1592.897315920976
 21
2081.693412654121
 31
0.0
  0
ARC
  5
181DE
330
1E
100
AcDbEntity
  8
OUTLINE
  6
CONTINUOUS
100
AcDbCircle
 10
1591.92843657668
 20
2078.612519071965
 30
0.0
 40
0.9692273023979907
100
AcDbArc
 50
270.2804380183172
 51
1.535328383689667
  0
LINE
  5
181DF
330
1E
100
AcDbEntity
  8
OUTLINE
  6
CONTINUOUS
100
AcDbLine
 10
1591.398815920989
 20
2077.621571786973
 30
0.0
 11
1591.398815920986
 21
2077.421771786974
 31
0.0
  0
LINE
  5
181E0
330
1E
100
AcDbEntity
  8
OUTLINE
  6
CONTINUOUS
100
AcDbLine
 10
1591.933180505555
 20
2077.643303379331
 30
0.0
 11
1591.398815920989
 21
2077.621571786973
 31
0.0
  0
ARC
  5
181E4
330
1E
100
AcDbEntity
  8
OUTLINE
  6
CONTINUOUS
100
AcDbCircle
 10
1580.581093218794
 20
2081.437815218629
 30
0.0
 40
1.574794409012918
100
AcDbArc
 50
226.9324843943485
 51
261.7646484438437
  0
ARC
  5
181E5
330
1E
100
AcDbEntity
  8
OUTLINE
  6
CONTINUOUS
100
AcDbCircle
 10
1566.423633453918
 20
2100.555399329949
 30
0.0
 40
1.498317531543265
100
AcDbArc
 50
179.9976939129473
 51
216.5792690671612
  0
ARC
  5
181E6
330
1E
100
AcDbEntity
  8
OUTLINE
  6
CONTINUOUS
100
AcDbCircle
 10
2556.376859230162
 20
2815.488094124943
 30
0.0
 40
1222.61904870681
100
AcDbArc
 50
215.8372881752768
 51
216.9654009285185
  0
LINE
  5
181F1
330
1E
100
AcDbEntity
  8
OUTLINE
  6
CONTINUOUS
100
AcDbLine
 10
1580.355520293021
 20
2079.879260027268
 30
0.0
 11
1591.398815920986
 21
2077.421771786974
 31
0.0
  0
LINE
  5
1820A
330
1E
100
AcDbEntity
  8
OUTLINE
  6
CONTINUOUS
100
AcDbLine
 10
1751.778417335628
 20
2002.163307370901
 30
0.0
 11
1859.925307387658
 21
2002.163307370901
 31
0.0
  0
LINE
  5
1820B
330
1E
100
AcDbEntity
  8
OUTLINE
  6
CONTINUOUS
100
AcDbLine
 10
1750.235750449468
 20
2003.199606271309
 30
0.0
 11
1751.774985995392
 21
2003.21181781817
 31
0.0
  0
LINE
  5
1820C
330
1E
100
AcDbEntity
  8
OUTLINE
  6
CONTINUOUS
100
AcDbLine
 10
1750.235750449468
 20
2003.199606271309
 30
0.0
 11
1750.239815920989
 21
2001.957325101737
 31
0.0
  0
LINE
  5
18212
330
1E
100
AcDbEntity
  8
OUTLINE
  6
CONTINUOUS
100
AcDbLine
 10
1864.925308083908
 20
2010.188875142233
 30
0.0
 11
1859.92530779473
 21
2006.855541616102
 31
0.0
  0
ARC
  5
18221
330
1E
100
AcDbEntity
  8
OUTLINE
  6
CONTINUOUS
100
AcDbCircle
 10
1745.487571028325
 20
1916.950705116422
 30
0.0
 40
450.0724919476861
100
AcDbArc
 50
89.395011603391
 51
108.8291030099858
  0
LINE
  5
18226
330
1E
100
AcDbEntity
  8
OUTLINE
  6
CONTINUOUS
100
AcDbLine
 10
1595.159514059252
 20
2335.348137262792
 30
0.0
 11
1599.890058641199
 21
2341.766237471686
 31
0.0
  0
LINE
  5
18227
330
1E
100
AcDbEntity
  8
OUTLINE
  6
CONTINUOUS
100
AcDbLine
 10
1592.897315920976
 20
2333.636569459919
 30
0.0
 11
1595.159514059252
 21
2335.348137262792
 31
0.0
  0
ARC
  5
18228
330
1E
100
AcDbEntity
  8
OUTLINE
  6
CONTINUOUS
100
AcDbCircle
 10
1591.948951578318
 20
2336.607025021935
 30
0.0
 40
0.9496241196077983
100
AcDbArc
 50
357.0484060415143
 51
90.9515908388998
  0
ARC
  5
1822C
330
1E
100
AcDbEntity
  8
OUTLINE
  6
CONTINUOUS
100
AcDbCircle
 10
1600.389558617229
 20
2342.465031448705
 30
0.0
 40
0.4994999760291364
100
AcDbArc
 50
108.8407701090489
 51
180.0000028022262
  0
LINE
  5
1822D
330
1E
100
AcDbEntity
  8
OUTLINE
  6
CONTINUOUS
100
AcDbLine
 10
1591.398815920986
 20
2337.774978597818
 30
0.0
 11
1565.889471738232
 21
2336.884172669726
 31
0.0
  0
ARC
  5
1822E
330
1E
100
AcDbEntity
  8
OUTLINE
  6
CONTINUOUS
100
AcDbCircle
 10
1565.924639399085
 20
2335.885488572419
 30
0.0
 40
0.9993031024588942
100
AcDbArc
 50
92.01678018105921
 51
179.9832200546109
  0
SPLINE
  5
1822F
330
1E
100
AcDbEntity
  8
OUTLINE
  6
CONTINUOUS
100
AcDbSpline
210
0.0
220
0.0
230
1.0
 70
    24
 71
     3
 72
     9
 73
     5
 74
     3
 42
0.0000000001
 43
0.0000000001
 44
0.00000001
 40
0.0
 40
0.0
 40
0.0
 40
0.0
 40
0.2673451852406488
 40
0.534690370480748
 40
0.534690370480748
 40
0.534690370480748
 40
0.534690370480748
 10
1591.398815920991
 20
2337.575178597819
 30
0.0
 10
1591.487876696249
 20
2337.572068527014
 30
0.0
 10
1591.665998246767
 20
2337.565848385406
 30
0.0
 10
1591.844119797286
 20
2337.559628243801
 30
0.0
 10
1591.933180572544
 20
2337.556518172998
 30
0.0
 11
1591.398815920991
 21
2337.575178597819
 31
0.0
 11
1591.665998246767
 21
2337.565848385407
 31
0.0
 11
1591.933180572544
 21
2337.556518172998
 31
0.0
  0
LINE
  5
18230
330
1E
100
AcDbEntity
  8
OUTLINE
  6
CONTINUOUS
100
AcDbLine
 10
1751.738315920978
 20
2366.798307370902
 30
0.0
 11
1864.925339021261
 21
2366.798307370902
 31
0.0
  0
LINE
  5
18239
330
1E
100
AcDbEntity
  8
OUTLINE
  6
CONTINUOUS
100
AcDbLine
 10
1751.738315920978
 20
2365.224095710591
 30
0.0
 11
1750.721883610045
 21
2365.259590309026
 31
0.0
  0
ARC
  5
1823B
330
1E
100
AcDbEntity
  8
OUTLINE
  6
CONTINUOUS
100
AcDbCircle
 10
1750.731009394643
 20
2365.759041869473
 30
0.0
 40
0.4995349248835204
100
AcDbArc
 50
190.4853203656529
 51
268.9532302793339
  0
LINE
  5
1823E
330
1E
100
AcDbEntity
  8
OUTLINE
  6
CONTINUOUS
100
AcDbLine
 10
1751.738315920978
 20
2365.224095710591
 30
0.0
 11
1751.738315920978
 21
2366.798307370902
 31
0.0
  0
LINE
  5
1823F
330
1E
100
AcDbEntity
  8
OUTLINE
  6
CONTINUOUS
100
AcDbLine
 10
1750.239815920991
 20
2365.668134704625
 30
0.0
 11
1750.239815920991
 21
2366.998107260329
 31
0.0
  0
LINE
  5
18240
330
1E
100
AcDbEntity
  8
OUTLINE
  6
CONTINUOUS
100
AcDbLine
 10
1859.925307387658
 20
2002.163307370901
 30
0.0
 11
1859.92530779473
 21
2006.855541616102
 31
0.0
  0
LINE
  5
18241
330
1E
100
AcDbEntity
  8
OUTLINE
  6
CONTINUOUS
100
AcDbLine
 10
1751.774985995392
 20
2003.21181781817
 30
0.0
 11
1751.778417335629
 21
2002.163307370901
 31
0.0
  0
LINE
  5
18243
330
1E
100
AcDbEntity
  8
OUTLINE
  6
CONTINUOUS
100
AcDbLine
 10
1599.890058641199
 20
2079.338213777085
 30
0.0
 11
1599.890058641199
 21
2067.118544082586
 31
0.0
  0
LINE
  5
18244
330
1E
100
AcDbEntity
  8
OUTLINE
  6
CONTINUOUS
100
AcDbLine
 10
1592.897315920976
 20
2081.693412654121
 30
0.0
 11
1592.897315920976
 21
2078.638487897582
 31
0.0
  0
LINE
  5
18245
330
1E
100
AcDbEntity
  8
OUTLINE
  6
CONTINUOUS
100
AcDbLine
 10
1592.897315920983
 20
2336.558126738704
 30
0.0
 11
1592.897315920976
 21
2333.636569459919
 31
0.0
  0
LINE
  5
18246
330
1E
100
AcDbEntity
  8
OUTLINE
  6
CONTINUOUS
100
AcDbLine
 10
1591.398815920986
 20
2337.774978597818
 30
0.0
 11
1591.398815920991
 21
2337.575178597818
 31
0.0
  0
LINE
  5
18247
330
1E
100
AcDbEntity
  8
OUTLINE
  6
CONTINUOUS
100
AcDbLine
 10
1599.890058641199
 20
2342.465031424274
 30
0.0
 11
1599.890058641199
 21
2341.766237471686
 31
0.0
  0
ENDSEC
  0
SECTION
  2
OBJECTS
  0
DICTIONARY
  5
C
330
0
100
AcDbDictionary
  3
ACAD_GROUP
350
D
  3
ACAD_LAYOUT
350
19
  3
ACAD_MLINESTYLE
350
16
  3
ACAD_PLOTSETTINGS
350
18
  3
ACAD_PLOTSTYLENAME
350
E
  3
ACDBHEADERROUNDTRIPXREC
350
182B9
  0
DICTIONARY
  5
18297
330
1E
100
AcDbDictionary
280
     1
  3
ACAD_LAYOUTSELFREF
360
182DB
  0
DICTIONARY
  5
18295
330
1A
100
AcDbDictionary
280
     1
  3
ACAD_LAYOUTSELFREF
360
182DA
  0
DICTIONARY
  5
D
102
{ACAD_REACTORS
330
C
102
}
330
C
100
AcDbDictionary
  0
DICTIONARY
  5
19
102
{ACAD_REACTORS
330
C
102
}
330
C
100
AcDbDictionary
  0
DICTIONARY
  5
16
102
{ACAD_REACTORS
330
C
102
}
330
C
100
AcDbDictionary
  3
STANDARD
350
17
  0
DICTIONARY
  5
18
102
{ACAD_REACTORS
330
C
102
}
330
C
100
AcDbDictionary
  0
ACDBDICTIONARYWDFLT
  5
E
102
{ACAD_REACTORS
330
C
102
}
330
C
100
AcDbDictionary
281
     1
  3
Normal
350
F
100
AcDbDictionaryWithDefault
340
F
  0
DICTIONARY
  5
182B9
102
{ACAD_REACTORS
330
C
102
}
330
C
100
AcDbDictionary
  3
CEPSNTYPE
350
182C3
  3
DIMSTYLEDATA
350
182C7
  3
FINGERPRINTGUID
350
182C4
  3
HYPERLINKBASE
350
182BC
  3
INSUNITS
350
182C2
  3
LAYOUTDICT
350
182BE
  3
LWETCUNION
350
182C1
  3
PLOTSETDICT
350
182BF
  3
PLOTSTYLNAMDICT
350
182C0
  3
PSVPSCALE
350
182C6
  3
PUCSBASE
350
182CA
  3
PUCSORGBACK
350
182D0
  3
PUCSORGBOTTOM
350
182CC
  3
PUCSORGFRONT
350
182CF
  3
PUCSORGLEFT
350
182CD
  3
PUCSORGRIGHT
350
182CE
  3
PUCSORGTOP
350
182CB
  3
PUCSORTHOREF
350
182C8
  3
PUCSORTHOVIEW
350
182C9
  3
STYLESHEET
350
182BD
  3
TSTACKALIGN
350
182BA
  3
TSTACKSIZE
350
182BB
  3
UCSBASE
350
182D3
  3
UCSORGBACK
350
182D9
  3
UCSORGBOTTOM
350
182D5
  3
UCSORGFRONT
350
182D8
  3
UCSORGLEFT
350
182D6
  3
UCSORGRIGHT
350
182D7
  3
UCSORGTOP
350
182D4
  3
UCSORTHOREF
350
182D1
  3
UCSORTHOVIEW
350
182D2
  3
VERSIONGUID
350
182C5
  0
XRECORD
  5
182DB
102
{ACAD_REACTORS
330
18297
102
}
330
18297
100
AcDbXrecord
340
1E
  0
XRECORD
  5
182DA
102
{ACAD_REACTORS
330
18295
102
}
330
18295
100
AcDbXrecord
340
1A
  0
MLINESTYLE
  5
17
102
{ACAD_REACTORS
330
16
102
}
330
16
100
AcDbMlineStyle
  2
STANDARD
 70
     0
  3

 62
   256
 51
90.0
 52
90.0
 71
     2
 49
0.5
 62
   256
  6
BYLAYER
 49
-0.5
 62
   256
  6
BYLAYER
  0
ACDBPLACEHOLDER
  5
F
102
{ACAD_REACTORS
330
E
102
}
330
E
100
AcDbPlaceHolder
280
     0
  0
XRECORD
  5
182C3
102
{ACAD_REACTORS
330
182B9
102
}
330
182B9
100
AcDbXrecord
 90
        0
  0
XRECORD
  5
182C7
102
{ACAD_REACTORS
330
182B9
102
}
330
182B9
100
AcDbXrecord
1000
DSTYLE
1002
{
1070
   341
340
46
1070
   342
340
46
1002
}
  0
XRECORD
  5
182C4
102
{ACAD_REACTORS
330
182B9
102
}
330
182B9
100
AcDbXrecord
  1
{97DA8DB6-C4F0-4C3D-ABEB-53C4FBBC7EFF}
  0
XRECORD
  5
182BC
102
{ACAD_REACTORS
330
182B9
102
}
330
182B9
100
AcDbXrecord
  1

  0
XRECORD
  5
182C2
102
{ACAD_REACTORS
330
182B9
102
}
330
182B9
100
AcDbXrecord
 90
        0
  0
XRECORD
  5
182BE
102
{ACAD_REACTORS
330
182B9
102
}
330
182B9
100
AcDbXrecord
340
19
  0
XRECORD
  5
182C1
102
{ACAD_REACTORS
330
182B9
102
}
330
182B9
100
AcDbXrecord
 90
    10781
  0
XRECORD
  5
182BF
102
{ACAD_REACTORS
330
182B9
102
}
330
182B9
100
AcDbXrecord
340
18
  0
XRECORD
  5
182C0
102
{ACAD_REACTORS
330
182B9
102
}
330
182B9
100
AcDbXrecord
340
E
  0
XRECORD
  5
182C6
102
{ACAD_REACTORS
330
182B9
102
}
330
182B9
100
AcDbXrecord
 40
0.0
  0
XRECORD
  5
182CA
102
{ACAD_REACTORS
330
182B9
102
}
330
182B9
100
AcDbXrecord
340
0
  0
XRECORD
  5
182D0
102
{ACAD_REACTORS
330
182B9
102
}
330
182B9
100
AcDbXrecord
 10
0.0
 20
0.0
 30
0.0
  0
XRECORD
  5
182CC
102
{ACAD_REACTORS
330
182B9
102
}
330
182B9
100
AcDbXrecord
 10
0.0
 20
0.0
 30
0.0
  0
XRECORD
  5
182CF
102
{ACAD_REACTORS
330
182B9
102
}
330
182B9
100
AcDbXrecord
 10
0.0
 20
0.0
 30
0.0
  0
XRECORD
  5
182CD
102
{ACAD_REACTORS
330
182B9
102
}
330
182B9
100
AcDbXrecord
 10
0.0
 20
0.0
 30
0.0
  0
XRECORD
  5
182CE
102
{ACAD_REACTORS
330
182B9
102
}
330
182B9
100
AcDbXrecord
 10
0.0
 20
0.0
 30
0.0
  0
XRECORD
  5
182CB
102
{ACAD_REACTORS
330
182B9
102
}
330
182B9
100
AcDbXrecord
 10
0.0
 20
0.0
 30
0.0
  0
XRECORD
  5
182C8
102
{ACAD_REACTORS
330
182B9
102
}
330
182B9
100
AcDbXrecord
340
0
  0
XRECORD
  5
182C9
102
{ACAD_REACTORS
330
182B9
102
}
330
182B9
100
AcDbXrecord
 70
     0
  0
XRECORD
  5
182BD
102
{ACAD_REACTORS
330
182B9
102
}
330
182B9
100
AcDbXrecord
  1
u.ctb
  0
XRECORD
  5
182BA
102
{ACAD_REACTORS
330
182B9
102
}
330
182B9
100
AcDbXrecord
 90
        1
  0
XRECORD
  5
182BB
102
{ACAD_REACTORS
330
182B9
102
}
330
182B9
100
AcDbXrecord
 90
       70
  0
XRECORD
  5
182D3
102
{ACAD_REACTORS
330
182B9
102
}
330
182B9
100
AcDbXrecord
340
0
  0
XRECORD
  5
182D9
102
{ACAD_REACTORS
330
182B9
102
}
330
182B9
100
AcDbXrecord
 10
0.0
 20
0.0
 30
0.0
  0
XRECORD
  5
182D5
102
{ACAD_REACTORS
330
182B9
102
}
330
182B9
100
AcDbXrecord
 10
0.0
 20
0.0
 30
0.0
  0
XRECORD
  5
182D8
102
{ACAD_REACTORS
330
182B9
102
}
330
182B9
100
AcDbXrecord
 10
0.0
 20
0.0
 30
0.0
  0
XRECORD
  5
182D6
102
{ACAD_REACTORS
330
182B9
102
}
330
182B9
100
AcDbXrecord
 10
0.0
 20
0.0
 30
0.0
  0
XRECORD
  5
182D7
102
{ACAD_REACTORS
330
182B9
102
}
330
182B9
100
AcDbXrecord
 10
0.0
 20
0.0
 30
0.0
  0
XRECORD
  5
182D4
102
{ACAD_REACTORS
330
182B9
102
}
330
182B9
100
AcDbXrecord
 10
0.0
 20
0.0
 30
0.0
  0
XRECORD
  5
182D1
102
{ACAD_REACTORS
330
182B9
102
}
330
182B9
100
AcDbXrecord
340
0
  0
XRECORD
  5
182D2
102
{ACAD_REACTORS
330
182B9
102
}
330
182B9
100
AcDbXrecord
 70
     0
  0
XRECORD
  5
182C5
102
{ACAD_REACTORS
330
182B9
102
}
330
182B9
100
AcDbXrecord
  1
{31E65626-9022-4B71-B6D7-1D68590FE852}
  0
ENDSEC
  0
EOF
