  0
SECTION
  2
HEADER
  9
$ACADVER
  1
AC1014
  9
$ACADMAINTVER
 70
     9
  9
$DWGCODEPAGE
  3
ANSI_932
  9
$INSBASE
 10
0.0
 20
0.0
 30
0.0
  9
$EXTMIN
 10
-1497.176579104156
 20
-654.3700531114907
 30
0.0
  9
$EXTMAX
 10
1559.482504224188
 20
319.5646542997164
 30
0.0
  9
$LIMMIN
 10
-3361.640109036482
 20
-2234.686371149186
  9
$LIMMAX
 10
2871.450528748471
 20
1386.359612068081
  9
$ORTHOMODE
 70
     1
  9
$REGENMODE
 70
     1
  9
$FILLMODE
 70
     1
  9
$QTEXTMODE
 70
     0
  9
$MIRRTEXT
 70
     0
  9
$DRAGMODE
 70
     2
  9
$LTSCALE
 40
20.0
  9
$OSMODE
 70
    37
  9
$ATTMODE
 70
     1
  9
$TEXTSIZE
 40
64.0
  9
$TRACEWID
 40
0.05
  9
$TEXTSTYLE
  7
STANDARD
  9
$CLAYER
  8
FIX
  9
$CELTYPE
  6
CONTINUOUS
  9
$CECOLOR
 62
   256
  9
$CELTSCALE
 40
1.0
  9
$DELOBJ
 70
     1
  9
$DISPSILH
 70
     0
  9
$DIMSCALE
 40
1.0
  9
$DIMASZ
 40
10.0
  9
$DIMEXO
 40
20.0
  9
$DIMDLI
 40
200.0
  9
$DIMRND
 40
0.0
  9
$DIMDLE
 40
0.0
  9
$DIMEXE
 40
20.0
  9
$DIMTP
 40
0.0
  9
$DIMTM
 40
0.0
  9
$DIMTXT
 40
50.0
  9
$DIMCEN
 40
0.082
  9
$DIMTSZ
 40
0.0
  9
$DIMTOL
 70
     0
  9
$DIMLIM
 70
     0
  9
$DIMTIH
 70
     0
  9
$DIMTOH
 70
     0
  9
$DIMSE1
 70
     0
  9
$DIMSE2
 70
     0
  9
$DIMTAD
 70
     1
  9
$DIMZIN
 70
     8
  9
$DIMBLK
  1
ORIGIN
  9
$DIMASO
 70
     1
  9
$DIMSHO
 70
     0
  9
$DIMPOST
  1

  9
$DIMAPOST
  1

  9
$DIMALT
 70
     0
  9
$DIMALTD
 70
     2
  9
$DIMALTF
 40
25.4
  9
$DIMLFAC
 40
1.0
  9
$DIMTOFL
 70
     1
  9
$DIMTVP
 40
0.0
  9
$DIMTIX
 70
     0
  9
$DIMSOXD
 70
     0
  9
$DIMSAH
 70
     0
  9
$DIMBLK1
  1

  9
$DIMBLK2
  1

  9
$DIMSTYLE
  2
STANDARD
  9
$DIMCLRD
 70
     0
  9
$DIMCLRE
 70
     0
  9
$DIMCLRT
 70
     0
  9
$DIMTFAC
 40
1.0
  9
$DIMGAP
 40
10.0
  9
$DIMJUST
 70
     0
  9
$DIMSD1
 70
     0
  9
$DIMSD2
 70
     0
  9
$DIMTOLJ
 70
     1
  9
$DIMTZIN
 70
     0
  9
$DIMALTZ
 70
     0
  9
$DIMALTTZ
 70
     0
  9
$DIMFIT
 70
     3
  9
$DIMUPT
 70
     0
  9
$DIMUNIT
 70
     2
  9
$DIMDEC
 70
     1
  9
$DIMTDEC
 70
     1
  9
$DIMALTU
 70
     2
  9
$DIMALTTD
 70
     2
  9
$DIMTXSTY
  7
STANDARD
  9
$DIMAUNIT
 70
     0
  9
$LUNITS
 70
     2
  9
$LUPREC
 70
     4
  9
$SKETCHINC
 40
0.1
  9
$FILLETRAD
 40
5.0
  9
$AUNITS
 70
     1
  9
$AUPREC
 70
     3
  9
$MENU
  1
ACAD
  9
$ELEVATION
 40
0.0
  9
$PELEVATION
 40
0.0
  9
$THICKNESS
 40
0.0
  9
$LIMCHECK
 70
     0
  9
$BLIPMODE
 70
     0
  9
$CHAMFERA
 40
0.0
  9
$CHAMFERB
 40
0.0
  9
$CHAMFERC
 40
0.0
  9
$CHAMFERD
 40
0.0
  9
$SKPOLY
 70
     0
  9
$TDCREATE
 40
2450330.393205995
  9
$TDUPDATE
 40
2454720.364011956
  9
$TDINDWG
 40
0.9991565278
  9
$TDUSRTIMER
 40
0.9991561574
  9
$USRTIMER
 70
     1
  9
$ANGBASE
 50
0.0
  9
$ANGDIR
 70
     0
  9
$PDMODE
 70
     3
  9
$PDSIZE
 40
-2.0
  9
$PLINEWID
 40
0.0
  9
$COORDS
 70
     0
  9
$SPLFRAME
 70
     0
  9
$SPLINETYPE
 70
     6
  9
$SPLINESEGS
 70
     8
  9
$ATTDIA
 70
     0
  9
$ATTREQ
 70
     1
  9
$HANDLING
 70
-16383
  9
$HANDSEED
  5
18307
  9
$SURFTAB1
 70
     6
  9
$SURFTAB2
 70
     6
  9
$SURFTYPE
 70
     6
  9
$SURFU
 70
     6
  9
$SURFV
 70
     6
  9
$UCSNAME
  2

  9
$UCSORG
 10
0.0
 20
0.0
 30
0.0
  9
$UCSXDIR
 10
1.0
 20
0.0
 30
0.0
  9
$UCSYDIR
 10
0.0
 20
1.0
 30
0.0
  9
$PUCSNAME
  2

  9
$PUCSORG
 10
0.0
 20
0.0
 30
0.0
  9
$PUCSXDIR
 10
1.0
 20
0.0
 30
0.0
  9
$PUCSYDIR
 10
0.0
 20
1.0
 30
0.0
  9
$USERI1
 70
     0
  9
$USERI2
 70
     0
  9
$USERI3
 70
     0
  9
$USERI4
 70
     0
  9
$USERI5
 70
     0
  9
$USERR1
 40
20.0
  9
$USERR2
 40
0.0
  9
$USERR3
 40
0.0
  9
$USERR4
 40
0.0
  9
$USERR5
 40
0.0
  9
$WORLDVIEW
 70
     1
  9
$SHADEDGE
 70
     3
  9
$SHADEDIF
 70
    70
  9
$TILEMODE
 70
     1
  9
$MAXACTVP
 70
    64
  9
$PINSBASE
 10
0.0
 20
0.0
 30
0.0
  9
$PLIMCHECK
 70
     0
  9
$PEXTMIN
 10
1.000000000000000E+20
 20
1.000000000000000E+20
 30
1.000000000000000E+20
  9
$PEXTMAX
 10
-1.000000000000000E+20
 20
-1.000000000000000E+20
 30
-1.000000000000000E+20
  9
$PLIMMIN
 10
0.0
 20
0.0
  9
$PLIMMAX
 10
12.0
 20
9.0
  9
$UNITMODE
 70
     0
  9
$VISRETAIN
 70
     1
  9
$PLINEGEN
 70
     0
  9
$PSLTSCALE
 70
     1
  9
$TREEDEPTH
 70
  3020
  9
$PICKSTYLE
 70
     1
  9
$CMLSTYLE
  2
STANDARD
  9
$CMLJUST
 70
     0
  9
$CMLSCALE
 40
1.0
  9
$PROXYGRAPHICS
 70
     1
  9
$MEASUREMENT
 70
     0
  0
ENDSEC
  0
SECTION
  2
CLASSES
  0
CLASS
  1
ACDBDICTIONARYWDFLT
  2
AcDbDictionaryWithDefault
  3
AutoCAD 2000
 90
        0
280
     0
281
     0
  0
CLASS
  1
ACDBPLACEHOLDER
  2
AcDbPlaceHolder
  3
AutoCAD 2000
 90
        0
280
     0
281
     0
  0
CLASS
  1
LAYOUT
  2
AcDbLayout
  3
AutoCAD 2000
 90
        0
280
     0
281
     0
  0
CLASS
  1
LONG_TRANSACTION
  2
AcDbLongTransaction
  3
AutoCAD 2000
 90
        0
280
     0
281
     0
  0
CLASS
  1
LWPOLYLINE
  2
AcDbPolyline
  3
AutoCAD 2000
 90
        0
280
     0
281
     1
  0
CLASS
  1
HATCH
  2
AcDbHatch
  3
AutoCAD 2000
 90
        0
280
     0
281
     1
  0
CLASS
  1
XRECORD
  2
AcDbXrecord
  3
AutoCAD 2000
 90
        0
280
     0
281
     0
  0
CLASS
  1
LONG_TRANSACTION
  2
AcDbLongTransaction
  3
AutoCAD 2000
 90
        0
280
     0
281
     0
  0
CLASS
  1
LWPOLYLINE
  2
AcDbPolyline
  3
AutoCAD 2000
 90
        0
280
     0
281
     1
  0
CLASS
  1
HATCH
  2
AcDbHatch
  3
AutoCAD 2000
 90
        0
280
     0
281
     1
  0
CLASS
  1
XRECORD
  2
AcDbXrecord
  3
AutoCAD 2000
 90
        0
280
     0
281
     0
  0
CLASS
  1
LONG_TRANSACTION
  2
AcDbLongTransaction
  3
AutoCAD 2000
 90
        0
280
     0
281
     0
  0
CLASS
  1
LWPOLYLINE
  2
AcDbPolyline
  3
AutoCAD 2000
 90
        0
280
     0
281
     1
  0
CLASS
  1
HATCH
  2
AcDbHatch
  3
AutoCAD 2000
 90
        0
280
     0
281
     1
  0
CLASS
  1
XRECORD
  2
AcDbXrecord
  3
AutoCAD 2000
 90
        0
280
     0
281
     0
  0
ENDSEC
  0
SECTION
  2
TABLES
  0
TABLE
  2
VPORT
  5
8
330
0
100
AcDbSymbolTable
 70
     4
  0
VPORT
  5
182E3
330
8
100
AcDbSymbolTableRecord
100
AcDbViewportTableRecord
  2
*ACTIVE
 70
     0
 10
0.0
 20
0.0
 11
1.0
 21
1.0
 12
31.19807598970737
 22
-184.5044512718568
 13
0.0
 23
0.0
 14
50.0
 24
50.0
 15
100.0
 25
100.0
 16
0.0
 26
0.0
 36
1.0
 17
0.0
 27
0.0
 37
0.0
 40
1575.215953123214
 41
1.947815533980582
 42
50.0
 43
0.0
 44
0.0
 50
0.0
 51
0.0
 71
     0
 72
   500
 73
     1
 74
     0
 75
     0
 76
     0
 77
     0
 78
     0
  0
ENDTAB
  0
TABLE
  2
LTYPE
  5
5
330
0
100
AcDbSymbolTable
 70
    16
  0
LTYPE
  5
13
330
5
100
AcDbSymbolTableRecord
100
AcDbLinetypeTableRecord
  2
BYBLOCK
 70
     0
  3

 72
    65
 73
     0
 40
0.0
  0
LTYPE
  5
14
330
5
100
AcDbSymbolTableRecord
100
AcDbLinetypeTableRecord
  2
BYLAYER
 70
     0
  3

 72
    65
 73
     0
 40
0.0
  0
LTYPE
  5
15
330
5
100
AcDbSymbolTableRecord
100
AcDbLinetypeTableRecord
  2
CONTINUOUS
 70
     0
  3
実線
 72
    65
 73
     0
 40
0.0
  0
LTYPE
  5
23
330
5
100
AcDbSymbolTableRecord
100
AcDbLinetypeTableRecord
  2
DASHDOT
 70
     0
  3
____ _ ____ _ ____ _ ____ _ ____ _ ____ _ ____
 72
    65
 73
     4
 40
5.5
 49
4.0
 74
     0
 49
-0.6
 74
     0
 49
0.3
 74
     0
 49
-0.6
 74
     0
  0
ENDTAB
  0
TABLE
  2
LAYER
  5
2
330
0
100
AcDbSymbolTable
 70
    14
  0
LAYER
  5
10
330
2
100
AcDbSymbolTableRecord
100
AcDbLayerTableRecord
  2
0
 70
     0
 62
     7
  6
CONTINUOUS
  0
LAYER
  5
22
330
2
100
AcDbSymbolTableRecord
100
AcDbLayerTableRecord
  2
SIZE
 70
     0
 62
    30
  6
CONTINUOUS
  0
LAYER
  5
31
330
2
100
AcDbSymbolTableRecord
100
AcDbLayerTableRecord
  2
DETAIL
 70
     0
 62
     5
  6
CONTINUOUS
  0
LAYER
  5
32
330
2
100
AcDbSymbolTableRecord
100
AcDbLayerTableRecord
  2
OUTLINE
 70
     0
 62
     3
  6
CONTINUOUS
  0
LAYER
  5
33
330
2
100
AcDbSymbolTableRecord
100
AcDbLayerTableRecord
  2
BASIS
 70
     0
 62
     6
  6
DASHDOT
  0
LAYER
  5
34
330
2
100
AcDbSymbolTableRecord
100
AcDbLayerTableRecord
  2
NOTE
 70
     0
 62
     4
  6
CONTINUOUS
  0
LAYER
  5
35
330
2
100
AcDbSymbolTableRecord
100
AcDbLayerTableRecord
  2
ARRANGE
 70
     0
 62
     1
  6
CONTINUOUS
  0
LAYER
  5
36
330
2
100
AcDbSymbolTableRecord
100
AcDbLayerTableRecord
  2
FIX
 70
     0
 62
    11
  6
CONTINUOUS
  0
LAYER
  5
37
330
2
100
AcDbSymbolTableRecord
100
AcDbLayerTableRecord
  2
ETC
 70
     0
 62
    61
  6
CONTINUOUS
  0
LAYER
  5
3A
330
2
100
AcDbSymbolTableRecord
100
AcDbLayerTableRecord
  2
DEFPOINTS
 70
     0
 62
     7
  6
CONTINUOUS
  0
LAYER
  5
182D5
330
2
100
AcDbSymbolTableRecord
100
AcDbLayerTableRecord
  2
SERVICESPACE
 70
     0
 62
     2
  6
DASHDOT
  0
LAYER
  5
182D6
330
2
100
AcDbSymbolTableRecord
100
AcDbLayerTableRecord
  2
SYMBOLLINE
 70
     0
 62
    15
  6
CONTINUOUS
  0
ENDTAB
  0
TABLE
  2
STYLE
  5
3
330
0
100
AcDbSymbolTable
 70
     2
  0
STYLE
  5
11
330
3
100
AcDbSymbolTableRecord
100
AcDbTextStyleTableRecord
  2
STANDARD
 70
     0
 40
0.0
 41
0.9
 50
0.0
 71
     0
 42
64.0
  3
SIMPLEX
  4
BIGFONT
  0
ENDTAB
  0
TABLE
  2
VIEW
  5
6
330
0
100
AcDbSymbolTable
 70
     1
  0
VIEW
  5
3C
330
6
100
AcDbSymbolTableRecord
100
AcDbViewTableRecord
  2
ALL
 70
     0
 40
4282.62
 10
0.0
 20
41.30990399999999
 41
5940.0
 11
0.0
 21
0.0
 31
1.0
 12
0.0
 22
0.0
 32
0.0
 42
50.0
 43
0.0
 44
0.0
 50
0.0
 71
     0
  0
ENDTAB
  0
TABLE
  2
UCS
  5
7
330
0
100
AcDbSymbolTable
 70
     0
  0
ENDTAB
  0
TABLE
  2
APPID
  5
9
330
0
100
AcDbSymbolTable
 70
     1
  0
APPID
  5
12
330
9
100
AcDbSymbolTableRecord
100
AcDbRegAppTableRecord
  2
ACAD
 70
     0
  0
ENDTAB
  0
TABLE
  2
DIMSTYLE
  5
A
330
0
100
AcDbSymbolTable
 70
     1
  0
DIMSTYLE
105
213
102
{ACAD_REACTORS
330
36DB
330
36DC
330
36DD
330
36DE
330
36DF
330
36E0
330
36E1
330
36E2
330
36E3
330
36E4
330
36E5
330
36E6
330
36E7
330
36E8
330
36E9
330
36EA
330
36EB
330
36EC
330
3771
330
3772
330
3773
330
3790
330
3791
330
3796
330
3797
330
379A
330
37A3
330
37A7
330
37A8
330
37B8
330
37BA
330
3842
330
384C
330
384D
330
384F
330
3856
330
3857
330
3860
330
3864
102
}
330
A
100
AcDbSymbolTableRecord
100
AcDbDimStyleTableRecord
  2
STANDARD
 70
     0
  3

  4

  5

  6

  7

 40
1.0
 41
0.18
 42
0.0625
 43
0.38
 44
0.18
 45
0.0
 46
0.0
 47
0.0
 48
0.0
140
0.18
141
0.09
142
0.0
143
25.4
144
1.0
145
0.0
146
1.0
147
0.09
 71
     0
 72
     0
 73
     1
 74
     1
 75
     0
 76
     0
 77
     0
 78
     0
170
     0
171
     2
172
     0
173
     0
174
     0
175
     0
176
     0
177
     0
178
     0
270
     2
271
     4
272
     4
273
     2
274
     2
340
11
275
     0
280
     0
281
     0
282
     0
283
     1
284
     0
285
     0
286
     0
287
     3
288
     0
  0
ENDTAB
  0
TABLE
  2
BLOCK_RECORD
  5
1
330
0
100
AcDbSymbolTable
 70
    83
  0
BLOCK_RECORD
  5
1E
102
{ACAD_XDICTIONARY
360
18277
102
}
330
1
100
AcDbSymbolTableRecord
100
AcDbBlockTableRecord
  2
*MODEL_SPACE
  0
BLOCK_RECORD
  5
1A
102
{ACAD_XDICTIONARY
360
18275
102
}
330
1
100
AcDbSymbolTableRecord
100
AcDbBlockTableRecord
  2
*PAPER_SPACE
  0
BLOCK_RECORD
  5
46
330
1
100
AcDbSymbolTableRecord
100
AcDbBlockTableRecord
  2
_ORIGIN
  0
ENDTAB
  0
ENDSEC
  0
SECTION
  2
BLOCKS
  0
BLOCK
  5
1F
330
1E
100
AcDbEntity
  8
0
100
AcDbBlockBegin
  2
*MODEL_SPACE
 70
     0
 10
0.0
 20
0.0
 30
0.0
  3
*MODEL_SPACE
  1

  0
ENDBLK
  5
20
330
1E
100
AcDbEntity
  8
0
100
AcDbBlockEnd
  0
BLOCK
  5
1B
330
1A
100
AcDbEntity
 67
     1
  8
0
100
AcDbBlockBegin
  2
*PAPER_SPACE
 70
     0
 10
0.0
 20
0.0
 30
0.0
  3
*PAPER_SPACE
  1

  0
ENDBLK
  5
1C
330
1A
100
AcDbEntity
 67
     1
  8
0
100
AcDbBlockEnd
  0
BLOCK
  5
47
330
46
100
AcDbEntity
  8
0
100
AcDbBlockBegin
  2
_ORIGIN
 70
     0
 10
0.0
 20
0.0
 30
0.0
  3
_ORIGIN
  1

  0
CIRCLE
  5
48
330
46
100
AcDbEntity
  8
0
  6
BYBLOCK
 62
     0
100
AcDbCircle
 10
0.0
 20
0.0
 30
0.0
 40
0.5
  0
LINE
  5
49
330
46
100
AcDbEntity
  8
0
  6
BYBLOCK
 62
     0
100
AcDbLine
 10
0.0
 20
0.0
 30
0.0
 11
-1.0
 21
0.0
 31
0.0
  0
ENDBLK
  5
4A
330
46
100
AcDbEntity
  8
0
100
AcDbBlockEnd
  0
ENDSEC
  0
SECTION
  2
ENTITIES
  0
TEXT
  5
17A8E
330
1E
100
AcDbEntity
  8
NOTE
 62
     4
100
AcDbText
 10
818.9769251624765
 20
-16.1869936179346
 30
0.0
 40
64.0
  1
D,RL,RG%%C75～%%C80
 50
359.9999999999976
 41
0.9
100
AcDbText
  0
LINE
  5
17A8F
330
1E
100
AcDbEntity
  8
NOTE
  6
CONTINUOUS
 62
     4
100
AcDbLine
 10
1559.482504224188
 20
-39.71791361796476
 30
0.0
 11
816.9255208919258
 21
-39.71791361793384
 31
0.0
  0
LINE
  5
17A90
330
1E
100
AcDbEntity
  8
NOTE
  6
CONTINUOUS
 62
     4
100
AcDbLine
 10
530.4999999999836
 20
-318.0000000000218
 30
0.0
 11
816.9255208919258
 21
-39.71791361793384
 31
0.0
  0
LINE
  5
17A91
330
1E
100
AcDbEntity
  8
NOTE
  6
CONTINUOUS
 62
     4
100
AcDbLine
 10
-449.2000000000171
 20
-317.9999999999818
 30
0.0
 11
-721.8993488373797
 21
-57.26886386885235
 31
0.0
  0
LINE
  5
17A93
330
1E
100
AcDbEntity
  8
BASIS
  6
DASHDOT
 62
     6
100
AcDbLine
 10
0.000000000001819
 20
51.7927300000001
 30
0.0
 11
-0.0000000000145519
 21
-333.9052583812545
 31
0.0
  0
LINE
  5
17A94
330
1E
100
AcDbEntity
  8
BASIS
  6
CONTINUOUS
100
AcDbLine
 10
-0.000000000007276
 20
-397.0562047240319
 30
0.0
 11
-0.000000000003638
 21
18.54455759857865
 31
0.0
  0
LINE
  5
17A96
330
1E
100
AcDbEntity
  8
DETAIL
  6
CONTINUOUS
100
AcDbLine
 10
-585.0000000000163
 20
-359.0504194614831
 30
0.0
 11
-585.0000000000017
 21
-5.994364575379222
 31
0.0
  0
LINE
  5
17A99
330
1E
100
AcDbEntity
  8
DETAIL
  6
CONTINUOUS
100
AcDbLine
 10
584.9999999999872
 20
-359.0504194615268
 30
0.0
 11
585.0000000000017
 21
-5.994364575427423
 31
0.0
  0
LINE
  5
17AA0
330
1E
100
AcDbEntity
  8
DETAIL
  6
CONTINUOUS
100
AcDbLine
 10
-348.241003032921
 20
-365.5640603536803
 30
0.0
 11
513.0860483777304
 21
-365.5640603536966
 31
0.0
  0
LINE
  5
17AB5
330
1E
100
AcDbEntity
  8
NOTE
  6
DASHDOT
 62
     4
100
AcDbLine
 10
510.4999999999836
 20
-318.0000000000207
 30
0.0
 11
550.4999999999836
 21
-318.0000000000227
 31
0.0
  0
LINE
  5
17AB6
330
1E
100
AcDbEntity
  8
NOTE
  6
CONTINUOUS
 62
     4
100
AcDbLine
 10
565.5694629450898
 20
-298.7611551717299
 30
0.0
 11
530.4999999999836
 21
-318.0000000000218
 31
0.0
  0
LINE
  5
17AB7
330
1E
100
AcDbEntity
  8
NOTE
  6
CONTINUOUS
 62
     4
100
AcDbLine
 10
530.4999999999836
 20
-318.0000000000218
 30
0.0
 11
551.2516227134418
 21
-283.8039476942803
 31
0.0
  0
LINE
  5
17AB8
330
1E
100
AcDbEntity
  8
NOTE
  6
DASHDOT
 62
     4
100
AcDbLine
 10
530.4999999999836
 20
-298.0000000000218
 30
0.0
 11
530.4999999999798
 21
-338.0000000000218
 31
0.0
  0
LINE
  5
17ADF
330
1E
100
AcDbEntity
  8
DETAIL
  6
CONTINUOUS
100
AcDbLine
 10
527.3741203970585
 20
-365.0407822691803
 30
0.0
 11
579.1239371840364
 21
-365.0407822691822
 31
0.0
  0
ARC
  5
17AE0
330
1E
100
AcDbEntity
  8
DETAIL
  6
CONTINUOUS
100
AcDbCircle
 10
579.20293017955
 20
-359.2411147525316
 30
0.0
 40
5.800205444381688
100
AcDbArc
 50
269.2196646792566
 51
1.884071998907622
  0
ARC
  5
17B05
330
1E
100
AcDbEntity
  8
DETAIL
  6
CONTINUOUS
100
AcDbCircle
 10
-579.2029301795753
 20
-359.2411147524861
 30
0.0
 40
5.800205444382592
100
AcDbArc
 50
178.115928001104
 51
270.7803353225177
  0
LINE
  5
17B08
330
1E
100
AcDbEntity
  8
NOTE
  6
DASHDOT
 62
     4
100
AcDbLine
 10
-469.200000000017
 20
-317.9999999999809
 30
0.0
 11
-429.2000000000171
 21
-317.9999999999826
 31
0.0
  0
LINE
  5
17B0D
330
1E
100
AcDbEntity
  8
DETAIL
  6
CONTINUOUS
100
AcDbLine
 10
-579.1239371838981
 20
-365.0407822691358
 30
0.0
 11
-362.5291173567148
 21
-365.0407822691686
 31
0.0
  0
LINE
  5
17B2B
330
1E
100
AcDbEntity
  8
NOTE
  6
CONTINUOUS
 62
     4
100
AcDbLine
 10
-449.2000000000171
 20
-317.9999999999818
 30
0.0
 11
-470.2249640392381
 21
-283.9713249495425
 31
0.0
  0
LINE
  5
17B2C
330
1E
100
AcDbEntity
  8
NOTE
  6
CONTINUOUS
 62
     4
100
AcDbLine
 10
-484.4224948988538
 20
-299.0427788247533
 30
0.0
 11
-449.2000000000171
 21
-317.9999999999818
 31
0.0
  0
LINE
  5
17B2D
330
1E
100
AcDbEntity
  8
NOTE
  6
DASHDOT
 62
     4
100
AcDbLine
 10
-449.2000000000171
 20
-297.9999999999818
 30
0.0
 11
-449.2000000000171
 21
-337.9999999999818
 31
0.0
  0
TEXT
  5
17B5F
330
1E
100
AcDbEntity
  8
NOTE
 62
     4
100
AcDbText
 10
-1479.21137048339
 20
-30.51800386882132
 30
0.0
 40
64.0
  1
D,RL,RG%%C75～%%C80
 50
359.9999999999976
 41
0.9
100
AcDbText
  0
LINE
  5
17B60
330
1E
100
AcDbEntity
  8
NOTE
  6
CONTINUOUS
 62
     4
100
AcDbLine
 10
-721.8993488373797
 20
-57.26886386885235
 30
0.0
 11
-1497.176579104156
 21
-57.26886386882052
 31
0.0
  0
CIRCLE
  5
17B61
330
1E
100
AcDbEntity
  8
ARRANGE
  6
CONTINUOUS
100
AcDbCircle
 10
0.0
 20
0.0
 30
0.0
 40
40.0
  0
LINE
  5
17B68
330
1E
100
AcDbEntity
  8
DETAIL
  6
CONTINUOUS
100
AcDbLine
 10
-579.1156248841453
 20
0.0000000000236469
 30
0.0
 11
579.1156248841453
 21
-0.0000000000236469
 31
0.0
  0
ARC
  5
17B71
330
1E
100
AcDbEntity
  8
DETAIL
  6
CONTINUOUS
100
AcDbCircle
 10
579.1973769735285
 20
-5.805132167964075
 30
0.0
 40
5.805707785565044
100
AcDbArc
 50
358.1321590103272
 51
90.80682746536863
  0
ARC
  5
17B78
330
1E
100
AcDbEntity
  8
DETAIL
  6
CONTINUOUS
100
AcDbCircle
 10
-579.1973769735285
 20
-5.805132167920419
 30
0.0
 40
5.805707785568477
100
AcDbArc
 50
89.19317253466299
 51
181.8678409896305
  0
POINT
  5
17B79
330
1E
100
AcDbEntity
  8
ARRANGE
 62
     1
100
AcDbPoint
 10
0.0
 20
0.0
 30
0.0
  0
POINT
  5
17B7A
330
1E
100
AcDbEntity
  8
ARRANGE
  6
CONTINUOUS
100
AcDbPoint
 10
0.0
 20
0.0
 30
0.0
  0
LINE
  5
17C6A
330
1E
100
AcDbEntity
  8
DETAIL
  6
CONTINUOUS
100
AcDbLine
 10
-348.2410030327428
 20
-365.5640603536866
 30
0.0
 11
-362.5291173567148
 21
-365.0407822691686
 31
0.0
  0
LINE
  5
17C6C
330
1E
100
AcDbEntity
  8
DETAIL
  6
CONTINUOUS
100
AcDbLine
 10
513.0860483777378
 20
-365.5640603536866
 30
0.0
 11
527.3741203970656
 21
-365.0407822691686
 31
0.0
  0
TEXT
  5
1810E
330
1E
100
AcDbEntity
  8
ETC
100
AcDbText
 10
-888.172319668247
 20
221.2942830234168
 30
0.0
 40
64.0
  1
PKFY-P63VKM_3
 41
0.7551957866624514
 72
     5
 11
-266.7540723574299
 21
221.2942830234168
 31
0.0
100
AcDbText
  0
LINE
  5
181E5
330
1E
100
AcDbEntity
  8
SIZE
  6
CONTINUOUS
100
AcDbLine
 10
-0.0000000000072772
 20
-417.0562047240318
 30
0.0
 11
-0.0000000000072824
 21
-502.1289718683664
 31
0.0
  0
LINE
  5
181E6
330
1E
100
AcDbEntity
  8
SIZE
  6
CONTINUOUS
100
AcDbLine
 10
-449.2000000000171
 20
-357.9999999999815
 30
0.0
 11
-449.2000000000171
 21
-502.1289718683664
 31
0.0
  0
LINE
  5
181E7
330
1E
100
AcDbEntity
  8
SIZE
  6
CONTINUOUS
100
AcDbLine
 10
-10.00000000000728
 20
-482.1289718683664
 30
0.0
 11
-439.200000000017
 21
-482.1289718683664
 31
0.0
  0
LINE
  5
181EB
330
1E
100
AcDbEntity
  8
SIZE
  6
CONTINUOUS
100
AcDbLine
 10
-585.0000000000163
 20
-379.0504194614827
 30
0.0
 11
-585.0000000000163
 21
-654.3700531114907
 31
0.0
  0
LINE
  5
181EC
330
1E
100
AcDbEntity
  8
SIZE
  6
CONTINUOUS
100
AcDbLine
 10
584.9999999999872
 20
-379.0504194615213
 30
0.0
 11
584.9999999999872
 21
-654.3700531114907
 31
0.0
  0
LINE
  5
181ED
330
1E
100
AcDbEntity
  8
SIZE
  6
CONTINUOUS
100
AcDbLine
 10
-575.0000000000162
 20
-634.3700531114907
 30
0.0
 11
574.9999999999872
 21
-634.3700531114907
 31
0.0
  0
LINE
  5
181F1
330
1E
100
AcDbEntity
  8
SIZE
  6
CONTINUOUS
100
AcDbLine
 10
-449.2000000000171
 20
-357.9999999999815
 30
0.0
 11
-449.2000000000171
 21
-502.1289718683608
 31
0.0
  0
LINE
  5
181F2
330
1E
100
AcDbEntity
  8
SIZE
  6
CONTINUOUS
100
AcDbLine
 10
-585.0000000000163
 20
-379.0504194614827
 30
0.0
 11
-585.0000000000163
 21
-502.1289718683608
 31
0.0
  0
LINE
  5
181F3
330
1E
100
AcDbEntity
  8
SIZE
  6
CONTINUOUS
100
AcDbLine
 10
-439.200000000017
 20
-482.1289718683608
 30
0.0
 11
-429.2000000000171
 21
-482.1289718683608
 31
0.0
  0
LINE
  5
181F4
330
1E
100
AcDbEntity
  8
SIZE
  6
CONTINUOUS
100
AcDbLine
 10
-595.0000000000162
 20
-482.1289718683608
 30
0.0
 11
-796.4285714285878
 21
-482.1289718683608
 31
0.0
  0
LINE
  5
181F5
330
1E
100
AcDbEntity
  8
SIZE
  6
CONTINUOUS
100
AcDbLine
 10
-449.2000000000171
 20
-482.1289718683608
 30
0.0
 11
-585.0000000000163
 21
-482.1289718683608
 31
0.0
  0
LINE
  5
181F9
330
1E
100
AcDbEntity
  8
SIZE
  6
CONTINUOUS
100
AcDbLine
 10
-489.200000000017
 20
-317.9999999999809
 30
0.0
 11
-733.3457009250722
 21
-317.9999999999806
 31
0.0
  0
LINE
  5
181FA
330
1E
100
AcDbEntity
  8
SIZE
  6
CONTINUOUS
100
AcDbLine
 10
-599.1239371838583
 20
-365.0407822691356
 30
0.0
 11
-733.3457009250722
 21
-365.0407822691356
 31
0.0
  0
LINE
  5
181FB
330
1E
100
AcDbEntity
  8
SIZE
  6
CONTINUOUS
100
AcDbLine
 10
-713.3457009250725
 20
-375.0407822691355
 30
0.0
 11
-713.3457009250725
 21
-385.0407822691355
 31
0.0
  0
LINE
  5
181FC
330
1E
100
AcDbEntity
  8
SIZE
  6
CONTINUOUS
100
AcDbLine
 10
-713.3457009250725
 20
-307.9999999999806
 30
0.0
 11
-713.3457009250721
 21
-205.142857142825
 31
0.0
  0
LINE
  5
181FD
330
1E
100
AcDbEntity
  8
SIZE
  6
CONTINUOUS
100
AcDbLine
 10
-713.3457009250725
 20
-365.0407822691356
 30
0.0
 11
-713.3457009250725
 21
-317.9999999999806
 31
0.0
  0
LINE
  5
18201
330
1E
100
AcDbEntity
  8
SIZE
  6
CONTINUOUS
100
AcDbLine
 10
598.9416251271268
 20
-0.0000000028740089
 30
0.0
 11
813.0406985656389
 21
-0.0000000028740696
 31
0.0
  0
LINE
  5
18202
330
1E
100
AcDbEntity
  8
SIZE
  6
CONTINUOUS
100
AcDbLine
 10
599.1239371840364
 20
-365.0407822691825
 30
0.0
 11
813.0406985656389
 21
-365.0407822691825
 31
0.0
  0
LINE
  5
18203
330
1E
100
AcDbEntity
  8
SIZE
  6
CONTINUOUS
100
AcDbLine
 10
793.0406985656389
 20
-10.00000000287406
 30
0.0
 11
793.0406985656389
 21
-355.0407822691825
 31
0.0
  0
LINE
  5
18207
330
1E
100
AcDbEntity
  8
SIZE
  6
CONTINUOUS
100
AcDbLine
 10
-0.0000000000072772
 20
-417.0562047240318
 30
0.0
 11
-0.0000000000072824
 21
-502.1289718684061
 31
0.0
  0
LINE
  5
18208
330
1E
100
AcDbEntity
  8
SIZE
  6
CONTINUOUS
100
AcDbLine
 10
530.4999999999798
 20
-358.0000000000218
 30
0.0
 11
530.4999999999798
 21
-502.1289718684061
 31
0.0
  0
LINE
  5
18209
330
1E
100
AcDbEntity
  8
SIZE
  6
CONTINUOUS
100
AcDbLine
 10
9.999999999992716
 20
-482.1289718684058
 30
0.0
 11
520.49999999998
 21
-482.1289718684058
 31
0.0
  0
LINE
  5
1820D
330
1E
100
AcDbEntity
  8
SIZE
  6
CONTINUOUS
100
AcDbLine
 10
530.4999999999798
 20
-358.0000000000218
 30
0.0
 11
530.4999999999798
 21
-502.1289718684084
 31
0.0
  0
LINE
  5
1820E
330
1E
100
AcDbEntity
  8
SIZE
  6
CONTINUOUS
100
AcDbLine
 10
584.9999999999872
 20
-379.0504194615423
 30
0.0
 11
584.9999999999872
 21
-502.1289718684084
 31
0.0
  0
LINE
  5
1820F
330
1E
100
AcDbEntity
  8
SIZE
  6
CONTINUOUS
100
AcDbLine
 10
520.49999999998
 20
-482.1289718684083
 30
0.0
 11
510.4999999999797
 21
-482.1289718684083
 31
0.0
  0
LINE
  5
18210
330
1E
100
AcDbEntity
  8
SIZE
  6
CONTINUOUS
100
AcDbLine
 10
594.9999999999873
 20
-482.1289718684083
 30
0.0
 11
762.1428571428443
 21
-482.1289718684083
 31
0.0
  0
LINE
  5
18211
330
1E
100
AcDbEntity
  8
SIZE
  6
CONTINUOUS
100
AcDbLine
 10
530.4999999999798
 20
-482.1289718684083
 30
0.0
 11
584.9999999999872
 21
-482.1289718684083
 31
0.0
  0
LINE
  5
18215
330
1E
100
AcDbEntity
  8
SIZE
  6
CONTINUOUS
100
AcDbLine
 10
599.1239371840364
 20
-365.0407822691825
 30
0.0
 11
725.0984042884101
 21
-365.0407822691825
 31
0.0
  0
LINE
  5
18216
330
1E
100
AcDbEntity
  8
SIZE
  6
CONTINUOUS
100
AcDbLine
 10
570.4999999999836
 20
-318.0000000000227
 30
0.0
 11
725.0984042884101
 21
-318.0000000000227
 31
0.0
  0
LINE
  5
18217
330
1E
100
AcDbEntity
  8
SIZE
  6
CONTINUOUS
100
AcDbLine
 10
705.0984042884102
 20
-375.0407822691823
 30
0.0
 11
705.0984042884102
 21
-385.0407822691823
 31
0.0
  0
LINE
  5
18218
330
1E
100
AcDbEntity
  8
SIZE
  6
CONTINUOUS
100
AcDbLine
 10
705.0984042884102
 20
-308.0000000000227
 30
0.0
 11
705.0984042884102
 21
-205.1428571428798
 31
0.0
  0
LINE
  5
18219
330
1E
100
AcDbEntity
  8
SIZE
  6
CONTINUOUS
100
AcDbLine
 10
705.0984042884102
 20
-365.0407822691825
 30
0.0
 11
705.0984042884102
 21
-318.0000000000227
 31
0.0
  0
TEXT
  5
1821D
330
1E
100
AcDbEntity
  8
SIZE
  6
CONTINUOUS
100
AcDbText
 10
-786.4285714285878
 20
-472.1289718683608
 30
0.0
 40
50.0
  1
135.8
 41
0.9
100
AcDbText
  0
CIRCLE
  5
1821E
330
1E
100
AcDbEntity
  8
SIZE
  6
BYBLOCK
100
AcDbCircle
 10
-585.0000000000163
 20
-634.3700531114907
 30
0.0
 40
5.0
  0
LINE
  5
1821F
330
1E
100
AcDbEntity
  8
SIZE
  6
BYBLOCK
100
AcDbLine
 10
-585.0000000000163
 20
-634.3700531114907
 30
0.0
 11
-575.0000000000162
 21
-634.3700531114907
 31
0.0
  0
CIRCLE
  5
18220
330
1E
100
AcDbEntity
  8
SIZE
  6
BYBLOCK
100
AcDbCircle
 10
-585.0000000000163
 20
-482.1289718683608
 30
0.0
 40
5.0
  0
LINE
  5
18221
330
1E
100
AcDbEntity
  8
SIZE
  6
BYBLOCK
100
AcDbLine
 10
-585.0000000000163
 20
-482.1289718683608
 30
0.0
 11
-595.0000000000162
 21
-482.1289718683608
 31
0.0
  0
CIRCLE
  5
18222
330
1E
100
AcDbEntity
  8
SIZE
  6
BYBLOCK
100
AcDbCircle
 10
-449.2000000000171
 20
-482.1289718683608
 30
0.0
 40
5.0
  0
LINE
  5
18223
330
1E
100
AcDbEntity
  8
SIZE
  6
BYBLOCK
100
AcDbLine
 10
-449.2000000000171
 20
-482.1289718683608
 30
0.0
 11
-439.200000000017
 21
-482.1289718683608
 31
0.0
  0
CIRCLE
  5
18224
330
1E
100
AcDbEntity
  8
SIZE
  6
BYBLOCK
100
AcDbCircle
 10
-449.2000000000171
 20
-482.1289718683664
 30
0.0
 40
5.0
  0
LINE
  5
18225
330
1E
100
AcDbEntity
  8
SIZE
  6
BYBLOCK
100
AcDbLine
 10
-449.2000000000171
 20
-482.1289718683664
 30
0.0
 11
-439.200000000017
 21
-482.1289718683664
 31
0.0
  0
CIRCLE
  5
18226
330
1E
100
AcDbEntity
  8
SIZE
  6
BYBLOCK
100
AcDbCircle
 10
-713.3457009250725
 20
-317.9999999999806
 30
0.0
 40
5.0
  0
LINE
  5
18227
330
1E
100
AcDbEntity
  8
SIZE
  6
BYBLOCK
100
AcDbLine
 10
-713.3457009250725
 20
-317.9999999999806
 30
0.0
 11
-713.3457009250725
 21
-307.9999999999806
 31
0.0
  0
CIRCLE
  5
18228
330
1E
100
AcDbEntity
  8
SIZE
  6
BYBLOCK
100
AcDbCircle
 10
-713.3457009250725
 20
-365.0407822691356
 30
0.0
 40
5.0
  0
LINE
  5
18229
330
1E
100
AcDbEntity
  8
SIZE
  6
BYBLOCK
100
AcDbLine
 10
-713.3457009250725
 20
-365.0407822691356
 30
0.0
 11
-713.3457009250725
 21
-375.0407822691355
 31
0.0
  0
TEXT
  5
1822A
330
1E
100
AcDbEntity
  8
SIZE
  6
CONTINUOUS
100
AcDbText
 10
-723.3457009250724
 20
-287.999999999968
 30
0.0
 40
50.0
  1
47
 50
90.0
 41
0.9
100
AcDbText
  0
TEXT
  5
1822B
330
1E
100
AcDbEntity
  8
SIZE
  6
CONTINUOUS
100
AcDbText
 10
175.2499999999861
 20
-472.1289718684061
 30
0.0
 40
50.0
  1
530.5
 41
0.9
100
AcDbText
  0
TEXT
  5
1822C
330
1E
100
AcDbEntity
  8
SIZE
  6
CONTINUOUS
100
AcDbText
 10
-314.6000000000122
 20
-472.1289718683665
 30
0.0
 40
50.0
  1
449.2
 41
0.9
100
AcDbText
  0
TEXT
  5
1822D
330
1E
100
AcDbEntity
  8
SIZE
  6
CONTINUOUS
100
AcDbText
 10
-70.71428571430027
 20
-624.3700531114907
 30
0.0
 40
50.0
  1
1170
 41
0.9
100
AcDbText
  0
CIRCLE
  5
1822E
330
1E
100
AcDbEntity
  8
SIZE
  6
BYBLOCK
100
AcDbCircle
 10
-0.0000000000072812
 20
-482.1289718684058
 30
0.0
 40
5.0
  0
LINE
  5
1822F
330
1E
100
AcDbEntity
  8
SIZE
  6
BYBLOCK
100
AcDbLine
 10
-0.0000000000072812
 20
-482.1289718684058
 30
0.0
 11
9.999999999992716
 21
-482.1289718684058
 31
0.0
  0
CIRCLE
  5
18230
330
1E
100
AcDbEntity
  8
SIZE
  6
BYBLOCK
100
AcDbCircle
 10
-0.0000000000072812
 20
-482.1289718683664
 30
0.0
 40
5.0
  0
LINE
  5
18231
330
1E
100
AcDbEntity
  8
SIZE
  6
BYBLOCK
100
AcDbLine
 10
-0.0000000000072812
 20
-482.1289718683664
 30
0.0
 11
-10.00000000000728
 21
-482.1289718683664
 31
0.0
  0
TEXT
  5
18232
330
1E
100
AcDbEntity
  8
SIZE
  6
CONTINUOUS
100
AcDbText
 10
614.9999999999872
 20
-472.1289718684082
 30
0.0
 40
50.0
  1
54.5
 41
0.9
100
AcDbText
  0
CIRCLE
  5
18233
330
1E
100
AcDbEntity
  8
SIZE
  6
BYBLOCK
100
AcDbCircle
 10
584.9999999999872
 20
-634.3700531114907
 30
0.0
 40
5.0
  0
LINE
  5
18234
330
1E
100
AcDbEntity
  8
SIZE
  6
BYBLOCK
100
AcDbLine
 10
584.9999999999872
 20
-634.3700531114907
 30
0.0
 11
574.9999999999872
 21
-634.3700531114907
 31
0.0
  0
CIRCLE
  5
18235
330
1E
100
AcDbEntity
  8
SIZE
  6
BYBLOCK
100
AcDbCircle
 10
584.9999999999872
 20
-482.1289718684083
 30
0.0
 40
5.0
  0
LINE
  5
18236
330
1E
100
AcDbEntity
  8
SIZE
  6
BYBLOCK
100
AcDbLine
 10
584.9999999999872
 20
-482.1289718684083
 30
0.0
 11
594.9999999999873
 21
-482.1289718684083
 31
0.0
  0
CIRCLE
  5
18237
330
1E
100
AcDbEntity
  8
SIZE
  6
BYBLOCK
100
AcDbCircle
 10
530.4999999999798
 20
-482.1289718684083
 30
0.0
 40
5.0
  0
LINE
  5
18238
330
1E
100
AcDbEntity
  8
SIZE
  6
BYBLOCK
100
AcDbLine
 10
530.4999999999798
 20
-482.1289718684083
 30
0.0
 11
520.49999999998
 21
-482.1289718684083
 31
0.0
  0
CIRCLE
  5
18239
330
1E
100
AcDbEntity
  8
SIZE
  6
BYBLOCK
100
AcDbCircle
 10
530.4999999999798
 20
-482.1289718684058
 30
0.0
 40
5.0
  0
LINE
  5
1823A
330
1E
100
AcDbEntity
  8
SIZE
  6
BYBLOCK
100
AcDbLine
 10
530.4999999999798
 20
-482.1289718684058
 30
0.0
 11
520.49999999998
 21
-482.1289718684058
 31
0.0
  0
TEXT
  5
1823B
330
1E
100
AcDbEntity
  8
SIZE
  6
CONTINUOUS
100
AcDbText
 10
695.0984042884101
 20
-288.0000000000226
 30
0.0
 40
50.0
  1
47
 50
90.0
 41
0.9
100
AcDbText
  0
CIRCLE
  5
1823C
330
1E
100
AcDbEntity
  8
SIZE
  6
BYBLOCK
100
AcDbCircle
 10
705.0984042884102
 20
-318.0000000000227
 30
0.0
 40
5.0
  0
LINE
  5
1823D
330
1E
100
AcDbEntity
  8
SIZE
  6
BYBLOCK
100
AcDbLine
 10
705.0984042884102
 20
-318.0000000000227
 30
0.0
 11
705.0984042884102
 21
-308.0000000000227
 31
0.0
  0
CIRCLE
  5
1823E
330
1E
100
AcDbEntity
  8
SIZE
  6
BYBLOCK
100
AcDbCircle
 10
705.0984042884102
 20
-365.0407822691825
 30
0.0
 40
5.0
  0
LINE
  5
1823F
330
1E
100
AcDbEntity
  8
SIZE
  6
BYBLOCK
100
AcDbLine
 10
705.0984042884102
 20
-365.0407822691825
 30
0.0
 11
705.0984042884102
 21
-375.0407822691823
 31
0.0
  0
CIRCLE
  5
18240
330
1E
100
AcDbEntity
  8
SIZE
  6
BYBLOCK
100
AcDbCircle
 10
793.0406985656389
 20
-365.0407822691825
 30
0.0
 40
5.0
  0
LINE
  5
18241
330
1E
100
AcDbEntity
  8
SIZE
  6
BYBLOCK
100
AcDbLine
 10
793.0406985656389
 20
-365.0407822691825
 30
0.0
 11
793.0406985656389
 21
-355.0407822691825
 31
0.0
  0
TEXT
  5
18242
330
1E
100
AcDbEntity
  8
SIZE
  6
CONTINUOUS
100
AcDbText
 10
783.0406985656392
 20
-240.3775339931681
 30
0.0
 40
50.0
  1
365
 50
90.0
 41
0.9
100
AcDbText
  0
CIRCLE
  5
18243
330
1E
100
AcDbEntity
  8
SIZE
  6
BYBLOCK
100
AcDbCircle
 10
793.0406985656389
 20
-0.0000000028740639
 30
0.0
 40
5.0
  0
LINE
  5
18244
330
1E
100
AcDbEntity
  8
SIZE
  6
BYBLOCK
100
AcDbLine
 10
793.0406985656389
 20
-0.0000000028740639
 30
0.0
 11
793.0406985656389
 21
-10.00000000287406
 31
0.0
  0
LINE
  5
18245
330
1E
100
AcDbEntity
  8
OUTLINE
  6
CONTINUOUS
100
AcDbLine
 10
-579.1156248841453
 20
0.0000000000236469
 30
0.0
 11
579.1156248841453
 21
-0.0000000000236469
 31
0.0
  0
LINE
  5
18246
330
1E
100
AcDbEntity
  8
OUTLINE
  6
CONTINUOUS
100
AcDbLine
 10
-579.1239371838981
 20
-365.0407822691358
 30
0.0
 11
-362.5291173567148
 21
-365.0407822691686
 31
0.0
  0
LINE
  5
18247
330
1E
100
AcDbEntity
  8
OUTLINE
  6
CONTINUOUS
100
AcDbLine
 10
-585.0000000000163
 20
-359.0504194614831
 30
0.0
 11
-585.0000000000017
 21
-5.994364575379222
 31
0.0
  0
ARC
  5
18248
330
1E
100
AcDbEntity
  8
OUTLINE
  6
CONTINUOUS
100
AcDbCircle
 10
-579.2029301795753
 20
-359.2411147524861
 30
0.0
 40
5.800205444382592
100
AcDbArc
 50
178.115928001104
 51
270.7803353225177
  0
ARC
  5
18249
330
1E
100
AcDbEntity
  8
OUTLINE
  6
CONTINUOUS
100
AcDbCircle
 10
-579.1973769735285
 20
-5.805132167920419
 30
0.0
 40
5.805707785568477
100
AcDbArc
 50
89.19317253466299
 51
181.8678409896305
  0
LINE
  5
1824A
330
1E
100
AcDbEntity
  8
OUTLINE
  6
CONTINUOUS
100
AcDbLine
 10
584.9999999999872
 20
-359.0504194615268
 30
0.0
 11
585.0000000000017
 21
-5.994364575427423
 31
0.0
  0
LINE
  5
1824B
330
1E
100
AcDbEntity
  8
OUTLINE
  6
CONTINUOUS
100
AcDbLine
 10
-348.241003032921
 20
-365.5640603536803
 30
0.0
 11
513.0860483777304
 21
-365.5640603536966
 31
0.0
  0
LINE
  5
1824C
330
1E
100
AcDbEntity
  8
OUTLINE
  6
CONTINUOUS
100
AcDbLine
 10
-348.2410030327428
 20
-365.5640603536866
 30
0.0
 11
-362.5291173567148
 21
-365.0407822691686
 31
0.0
  0
ARC
  5
1824D
330
1E
100
AcDbEntity
  8
OUTLINE
  6
CONTINUOUS
100
AcDbCircle
 10
579.20293017955
 20
-359.2411147525316
 30
0.0
 40
5.800205444381688
100
AcDbArc
 50
269.2196646792566
 51
1.884071998907622
  0
LINE
  5
1824E
330
1E
100
AcDbEntity
  8
OUTLINE
  6
CONTINUOUS
100
AcDbLine
 10
513.0860483777378
 20
-365.5640603536866
 30
0.0
 11
527.3741203970656
 21
-365.0407822691686
 31
0.0
  0
LINE
  5
1824F
330
1E
100
AcDbEntity
  8
OUTLINE
  6
CONTINUOUS
100
AcDbLine
 10
527.3741203970585
 20
-365.0407822691803
 30
0.0
 11
579.1239371840364
 21
-365.0407822691822
 31
0.0
  0
ARC
  5
18250
330
1E
100
AcDbEntity
  8
OUTLINE
  6
CONTINUOUS
100
AcDbCircle
 10
579.1973769735285
 20
-5.805132167964075
 30
0.0
 40
5.805707785565044
100
AcDbArc
 50
358.1321590103272
 51
90.80682746536863
  0
ENDSEC
  0
SECTION
  2
OBJECTS
  0
DICTIONARY
  5
C
330
0
100
AcDbDictionary
  3
ACAD_GROUP
350
D
  3
ACAD_LAYOUT
350
19
  3
ACAD_MLINESTYLE
350
16
  3
ACAD_PLOTSETTINGS
350
18
  3
ACAD_PLOTSTYLENAME
350
E
  3
ACDBHEADERROUNDTRIPXREC
350
182E4
  0
DICTIONARY
  5
18277
330
1E
100
AcDbDictionary
280
     1
  3
ACAD_LAYOUTSELFREF
360
18306
  0
DICTIONARY
  5
18275
330
1A
100
AcDbDictionary
280
     1
  3
ACAD_LAYOUTSELFREF
360
18305
  0
DICTIONARY
  5
D
102
{ACAD_REACTORS
330
C
102
}
330
C
100
AcDbDictionary
  0
DICTIONARY
  5
19
102
{ACAD_REACTORS
330
C
102
}
330
C
100
AcDbDictionary
  0
DICTIONARY
  5
16
102
{ACAD_REACTORS
330
C
102
}
330
C
100
AcDbDictionary
  3
STANDARD
350
17
  0
DICTIONARY
  5
18
102
{ACAD_REACTORS
330
C
102
}
330
C
100
AcDbDictionary
  0
ACDBDICTIONARYWDFLT
  5
E
102
{ACAD_REACTORS
330
C
102
}
330
C
100
AcDbDictionary
281
     1
  3
Normal
350
F
100
AcDbDictionaryWithDefault
340
F
  0
DICTIONARY
  5
182E4
102
{ACAD_REACTORS
330
C
102
}
330
C
100
AcDbDictionary
  3
CEPSNTYPE
350
182EE
  3
DIMSTYLEDATA
350
182F2
  3
FINGERPRINTGUID
350
182EF
  3
HYPERLINKBASE
350
182E7
  3
INSUNITS
350
182ED
  3
LAYOUTDICT
350
182E9
  3
LWETCUNION
350
182EC
  3
PLOTSETDICT
350
182EA
  3
PLOTSTYLNAMDICT
350
182EB
  3
PSVPSCALE
350
182F1
  3
PUCSBASE
350
182F5
  3
PUCSORGBACK
350
182FB
  3
PUCSORGBOTTOM
350
182F7
  3
PUCSORGFRONT
350
182FA
  3
PUCSORGLEFT
350
182F8
  3
PUCSORGRIGHT
350
182F9
  3
PUCSORGTOP
350
182F6
  3
PUCSORTHOREF
350
182F3
  3
PUCSORTHOVIEW
350
182F4
  3
STYLESHEET
350
182E8
  3
TSTACKALIGN
350
182E5
  3
TSTACKSIZE
350
182E6
  3
UCSBASE
350
182FE
  3
UCSORGBACK
350
18304
  3
UCSORGBOTTOM
350
18300
  3
UCSORGFRONT
350
18303
  3
UCSORGLEFT
350
18301
  3
UCSORGRIGHT
350
18302
  3
UCSORGTOP
350
182FF
  3
UCSORTHOREF
350
182FC
  3
UCSORTHOVIEW
350
182FD
  3
VERSIONGUID
350
182F0
  0
XRECORD
  5
18306
102
{ACAD_REACTORS
330
18277
102
}
330
18277
100
AcDbXrecord
340
1E
  0
XRECORD
  5
18305
102
{ACAD_REACTORS
330
18275
102
}
330
18275
100
AcDbXrecord
340
1A
  0
MLINESTYLE
  5
17
102
{ACAD_REACTORS
330
16
102
}
330
16
100
AcDbMlineStyle
  2
STANDARD
 70
     0
  3

 62
   256
 51
90.0
 52
90.0
 71
     2
 49
0.5
 62
   256
  6
BYLAYER
 49
-0.5
 62
   256
  6
BYLAYER
  0
ACDBPLACEHOLDER
  5
F
102
{ACAD_REACTORS
330
E
102
}
330
E
100
AcDbPlaceHolder
280
     0
  0
XRECORD
  5
182EE
102
{ACAD_REACTORS
330
182E4
102
}
330
182E4
100
AcDbXrecord
 90
        0
  0
XRECORD
  5
182F2
102
{ACAD_REACTORS
330
182E4
102
}
330
182E4
100
AcDbXrecord
1000
DSTYLE
1002
{
1070
   341
340
46
1070
   342
340
46
1002
}
  0
XRECORD
  5
182EF
102
{ACAD_REACTORS
330
182E4
102
}
330
182E4
100
AcDbXrecord
  1
{97DA8DB6-C4F0-4C3D-ABEB-53C4FBBC7EFF}
  0
XRECORD
  5
182E7
102
{ACAD_REACTORS
330
182E4
102
}
330
182E4
100
AcDbXrecord
  1

  0
XRECORD
  5
182ED
102
{ACAD_REACTORS
330
182E4
102
}
330
182E4
100
AcDbXrecord
 90
        0
  0
XRECORD
  5
182E9
102
{ACAD_REACTORS
330
182E4
102
}
330
182E4
100
AcDbXrecord
340
19
  0
XRECORD
  5
182EC
102
{ACAD_REACTORS
330
182E4
102
}
330
182E4
100
AcDbXrecord
 90
    10781
  0
XRECORD
  5
182EA
102
{ACAD_REACTORS
330
182E4
102
}
330
182E4
100
AcDbXrecord
340
18
  0
XRECORD
  5
182EB
102
{ACAD_REACTORS
330
182E4
102
}
330
182E4
100
AcDbXrecord
340
E
  0
XRECORD
  5
182F1
102
{ACAD_REACTORS
330
182E4
102
}
330
182E4
100
AcDbXrecord
 40
0.0
  0
XRECORD
  5
182F5
102
{ACAD_REACTORS
330
182E4
102
}
330
182E4
100
AcDbXrecord
340
0
  0
XRECORD
  5
182FB
102
{ACAD_REACTORS
330
182E4
102
}
330
182E4
100
AcDbXrecord
 10
0.0
 20
0.0
 30
0.0
  0
XRECORD
  5
182F7
102
{ACAD_REACTORS
330
182E4
102
}
330
182E4
100
AcDbXrecord
 10
0.0
 20
0.0
 30
0.0
  0
XRECORD
  5
182FA
102
{ACAD_REACTORS
330
182E4
102
}
330
182E4
100
AcDbXrecord
 10
0.0
 20
0.0
 30
0.0
  0
XRECORD
  5
182F8
102
{ACAD_REACTORS
330
182E4
102
}
330
182E4
100
AcDbXrecord
 10
0.0
 20
0.0
 30
0.0
  0
XRECORD
  5
182F9
102
{ACAD_REACTORS
330
182E4
102
}
330
182E4
100
AcDbXrecord
 10
0.0
 20
0.0
 30
0.0
  0
XRECORD
  5
182F6
102
{ACAD_REACTORS
330
182E4
102
}
330
182E4
100
AcDbXrecord
 10
0.0
 20
0.0
 30
0.0
  0
XRECORD
  5
182F3
102
{ACAD_REACTORS
330
182E4
102
}
330
182E4
100
AcDbXrecord
340
0
  0
XRECORD
  5
182F4
102
{ACAD_REACTORS
330
182E4
102
}
330
182E4
100
AcDbXrecord
 70
     0
  0
XRECORD
  5
182E8
102
{ACAD_REACTORS
330
182E4
102
}
330
182E4
100
AcDbXrecord
  1
u.ctb
  0
XRECORD
  5
182E5
102
{ACAD_REACTORS
330
182E4
102
}
330
182E4
100
AcDbXrecord
 90
        1
  0
XRECORD
  5
182E6
102
{ACAD_REACTORS
330
182E4
102
}
330
182E4
100
AcDbXrecord
 90
       70
  0
XRECORD
  5
182FE
102
{ACAD_REACTORS
330
182E4
102
}
330
182E4
100
AcDbXrecord
340
0
  0
XRECORD
  5
18304
102
{ACAD_REACTORS
330
182E4
102
}
330
182E4
100
AcDbXrecord
 10
0.0
 20
0.0
 30
0.0
  0
XRECORD
  5
18300
102
{ACAD_REACTORS
330
182E4
102
}
330
182E4
100
AcDbXrecord
 10
0.0
 20
0.0
 30
0.0
  0
XRECORD
  5
18303
102
{ACAD_REACTORS
330
182E4
102
}
330
182E4
100
AcDbXrecord
 10
0.0
 20
0.0
 30
0.0
  0
XRECORD
  5
18301
102
{ACAD_REACTORS
330
182E4
102
}
330
182E4
100
AcDbXrecord
 10
0.0
 20
0.0
 30
0.0
  0
XRECORD
  5
18302
102
{ACAD_REACTORS
330
182E4
102
}
330
182E4
100
AcDbXrecord
 10
0.0
 20
0.0
 30
0.0
  0
XRECORD
  5
182FF
102
{ACAD_REACTORS
330
182E4
102
}
330
182E4
100
AcDbXrecord
 10
0.0
 20
0.0
 30
0.0
  0
XRECORD
  5
182FC
102
{ACAD_REACTORS
330
182E4
102
}
330
182E4
100
AcDbXrecord
340
0
  0
XRECORD
  5
182FD
102
{ACAD_REACTORS
330
182E4
102
}
330
182E4
100
AcDbXrecord
 70
     0
  0
XRECORD
  5
182F0
102
{ACAD_REACTORS
330
182E4
102
}
330
182E4
100
AcDbXrecord
  1
{4C170008-C642-453B-9D53-EEAF14BB2F1C}
  0
ENDSEC
  0
EOF
