  0
SECTION
  2
HEADER
  9
$ACADVER
  1
AC1014
  9
$ACADMAINTVER
 70
     9
  9
$DWGCODEPAGE
  3
ANSI_932
  9
$INSBASE
 10
0.0
 20
0.0
 30
0.0
  9
$EXTMIN
 10
-1559.482504224191
 20
-654.3700531114667
 30
0.0
  9
$EXTMAX
 10
1497.176579104149
 20
392.2967287504561
 30
0.0
  9
$LIMMIN
 10
-3424.718897474421
 20
-241.2751718400066
  9
$LIMMAX
 10
5483.332090746102
 20
4682.367238430699
  9
$ORTHOMODE
 70
     1
  9
$REGENMODE
 70
     1
  9
$FILLMODE
 70
     1
  9
$QTEXTMODE
 70
     0
  9
$MIRRTEXT
 70
     0
  9
$DRAGMODE
 70
     2
  9
$LTSCALE
 40
20.0
  9
$OSMODE
 70
    37
  9
$ATTMODE
 70
     1
  9
$TEXTSIZE
 40
64.0
  9
$TRACEWID
 40
0.05
  9
$TEXTSTYLE
  7
STANDARD
  9
$CLAYER
  8
SIZE
  9
$CELTYPE
  6
CONTINUOUS
  9
$CECOLOR
 62
   256
  9
$CELTSCALE
 40
1.0
  9
$DELOBJ
 70
     1
  9
$DISPSILH
 70
     0
  9
$DIMSCALE
 40
1.0
  9
$DIMASZ
 40
10.0
  9
$DIMEXO
 40
20.0
  9
$DIMDLI
 40
200.0
  9
$DIMRND
 40
0.0
  9
$DIMDLE
 40
0.0
  9
$DIMEXE
 40
20.0
  9
$DIMTP
 40
0.0
  9
$DIMTM
 40
0.0
  9
$DIMTXT
 40
50.0
  9
$DIMCEN
 40
0.082
  9
$DIMTSZ
 40
0.0
  9
$DIMTOL
 70
     0
  9
$DIMLIM
 70
     0
  9
$DIMTIH
 70
     0
  9
$DIMTOH
 70
     0
  9
$DIMSE1
 70
     0
  9
$DIMSE2
 70
     0
  9
$DIMTAD
 70
     1
  9
$DIMZIN
 70
     8
  9
$DIMBLK
  1
ORIGIN
  9
$DIMASO
 70
     1
  9
$DIMSHO
 70
     0
  9
$DIMPOST
  1

  9
$DIMAPOST
  1

  9
$DIMALT
 70
     0
  9
$DIMALTD
 70
     2
  9
$DIMALTF
 40
25.4
  9
$DIMLFAC
 40
1.0
  9
$DIMTOFL
 70
     1
  9
$DIMTVP
 40
0.0
  9
$DIMTIX
 70
     0
  9
$DIMSOXD
 70
     0
  9
$DIMSAH
 70
     0
  9
$DIMBLK1
  1

  9
$DIMBLK2
  1

  9
$DIMSTYLE
  2
STANDARD
  9
$DIMCLRD
 70
     0
  9
$DIMCLRE
 70
     0
  9
$DIMCLRT
 70
     0
  9
$DIMTFAC
 40
1.0
  9
$DIMGAP
 40
10.0
  9
$DIMJUST
 70
     0
  9
$DIMSD1
 70
     0
  9
$DIMSD2
 70
     0
  9
$DIMTOLJ
 70
     1
  9
$DIMTZIN
 70
     0
  9
$DIMALTZ
 70
     0
  9
$DIMALTTZ
 70
     0
  9
$DIMFIT
 70
     3
  9
$DIMUPT
 70
     0
  9
$DIMUNIT
 70
     2
  9
$DIMDEC
 70
     1
  9
$DIMTDEC
 70
     1
  9
$DIMALTU
 70
     2
  9
$DIMALTTD
 70
     2
  9
$DIMTXSTY
  7
STANDARD
  9
$DIMAUNIT
 70
     0
  9
$LUNITS
 70
     2
  9
$LUPREC
 70
     4
  9
$SKETCHINC
 40
0.1
  9
$FILLETRAD
 40
5.0
  9
$AUNITS
 70
     1
  9
$AUPREC
 70
     3
  9
$MENU
  1
ACAD
  9
$ELEVATION
 40
0.0
  9
$PELEVATION
 40
0.0
  9
$THICKNESS
 40
0.0
  9
$LIMCHECK
 70
     0
  9
$BLIPMODE
 70
     0
  9
$CHAMFERA
 40
0.0
  9
$CHAMFERB
 40
0.0
  9
$CHAMFERC
 40
0.0
  9
$CHAMFERD
 40
0.0
  9
$SKPOLY
 70
     0
  9
$TDCREATE
 40
2450330.393205995
  9
$TDUPDATE
 40
2454720.401213379
  9
$TDINDWG
 40
0.9986687963
  9
$TDUSRTIMER
 40
0.9986684491
  9
$USRTIMER
 70
     1
  9
$ANGBASE
 50
0.0
  9
$ANGDIR
 70
     0
  9
$PDMODE
 70
     3
  9
$PDSIZE
 40
-2.0
  9
$PLINEWID
 40
0.0
  9
$COORDS
 70
     0
  9
$SPLFRAME
 70
     0
  9
$SPLINETYPE
 70
     6
  9
$SPLINESEGS
 70
     8
  9
$ATTDIA
 70
     0
  9
$ATTREQ
 70
     1
  9
$HANDLING
 70
-16383
  9
$HANDSEED
  5
183E1
  9
$SURFTAB1
 70
     6
  9
$SURFTAB2
 70
     6
  9
$SURFTYPE
 70
     6
  9
$SURFU
 70
     6
  9
$SURFV
 70
     6
  9
$UCSNAME
  2

  9
$UCSORG
 10
0.0
 20
0.0
 30
0.0
  9
$UCSXDIR
 10
1.0
 20
0.0
 30
0.0
  9
$UCSYDIR
 10
0.0
 20
1.0
 30
0.0
  9
$PUCSNAME
  2

  9
$PUCSORG
 10
0.0
 20
0.0
 30
0.0
  9
$PUCSXDIR
 10
1.0
 20
0.0
 30
0.0
  9
$PUCSYDIR
 10
0.0
 20
1.0
 30
0.0
  9
$USERI1
 70
     0
  9
$USERI2
 70
     0
  9
$USERI3
 70
     0
  9
$USERI4
 70
     0
  9
$USERI5
 70
     0
  9
$USERR1
 40
20.0
  9
$USERR2
 40
0.0
  9
$USERR3
 40
0.0
  9
$USERR4
 40
0.0
  9
$USERR5
 40
0.0
  9
$WORLDVIEW
 70
     1
  9
$SHADEDGE
 70
     3
  9
$SHADEDIF
 70
    70
  9
$TILEMODE
 70
     1
  9
$MAXACTVP
 70
    64
  9
$PINSBASE
 10
0.0
 20
0.0
 30
0.0
  9
$PLIMCHECK
 70
     0
  9
$PEXTMIN
 10
1.000000000000000E+20
 20
1.000000000000000E+20
 30
1.000000000000000E+20
  9
$PEXTMAX
 10
-1.000000000000000E+20
 20
-1.000000000000000E+20
 30
-1.000000000000000E+20
  9
$PLIMMIN
 10
0.0
 20
0.0
  9
$PLIMMAX
 10
12.0
 20
9.0
  9
$UNITMODE
 70
     0
  9
$VISRETAIN
 70
     1
  9
$PLINEGEN
 70
     0
  9
$PSLTSCALE
 70
     1
  9
$TREEDEPTH
 70
  3020
  9
$PICKSTYLE
 70
     1
  9
$CMLSTYLE
  2
STANDARD
  9
$CMLJUST
 70
     0
  9
$CMLSCALE
 40
1.0
  9
$PROXYGRAPHICS
 70
     1
  9
$MEASUREMENT
 70
     0
  0
ENDSEC
  0
SECTION
  2
CLASSES
  0
CLASS
  1
ACDBDICTIONARYWDFLT
  2
AcDbDictionaryWithDefault
  3
AutoCAD 2000
 90
        0
280
     0
281
     0
  0
CLASS
  1
ACDBPLACEHOLDER
  2
AcDbPlaceHolder
  3
AutoCAD 2000
 90
        0
280
     0
281
     0
  0
CLASS
  1
LAYOUT
  2
AcDbLayout
  3
AutoCAD 2000
 90
        0
280
     0
281
     0
  0
CLASS
  1
LONG_TRANSACTION
  2
AcDbLongTransaction
  3
AutoCAD 2000
 90
        0
280
     0
281
     0
  0
CLASS
  1
LWPOLYLINE
  2
AcDbPolyline
  3
AutoCAD 2000
 90
        0
280
     0
281
     1
  0
CLASS
  1
HATCH
  2
AcDbHatch
  3
AutoCAD 2000
 90
        0
280
     0
281
     1
  0
CLASS
  1
XRECORD
  2
AcDbXrecord
  3
AutoCAD 2000
 90
        0
280
     0
281
     0
  0
CLASS
  1
LONG_TRANSACTION
  2
AcDbLongTransaction
  3
AutoCAD 2000
 90
        0
280
     0
281
     0
  0
CLASS
  1
LWPOLYLINE
  2
AcDbPolyline
  3
AutoCAD 2000
 90
        0
280
     0
281
     1
  0
CLASS
  1
HATCH
  2
AcDbHatch
  3
AutoCAD 2000
 90
        0
280
     0
281
     1
  0
CLASS
  1
XRECORD
  2
AcDbXrecord
  3
AutoCAD 2000
 90
        0
280
     0
281
     0
  0
CLASS
  1
LONG_TRANSACTION
  2
AcDbLongTransaction
  3
AutoCAD 2000
 90
        0
280
     0
281
     0
  0
CLASS
  1
LWPOLYLINE
  2
AcDbPolyline
  3
AutoCAD 2000
 90
        0
280
     0
281
     1
  0
CLASS
  1
HATCH
  2
AcDbHatch
  3
AutoCAD 2000
 90
        0
280
     0
281
     1
  0
CLASS
  1
XRECORD
  2
AcDbXrecord
  3
AutoCAD 2000
 90
        0
280
     0
281
     0
  0
CLASS
  1
LONG_TRANSACTION
  2
AcDbLongTransaction
  3
AutoCAD 2000
 90
        0
280
     0
281
     0
  0
CLASS
  1
LWPOLYLINE
  2
AcDbPolyline
  3
AutoCAD 2000
 90
        0
280
     0
281
     1
  0
CLASS
  1
HATCH
  2
AcDbHatch
  3
AutoCAD 2000
 90
        0
280
     0
281
     1
  0
CLASS
  1
XRECORD
  2
AcDbXrecord
  3
AutoCAD 2000
 90
        0
280
     0
281
     0
  0
ENDSEC
  0
SECTION
  2
TABLES
  0
TABLE
  2
VPORT
  5
8
330
0
100
AcDbSymbolTable
 70
     2
  0
VPORT
  5
183BD
330
8
100
AcDbSymbolTableRecord
100
AcDbViewportTableRecord
  2
*ACTIVE
 70
     0
 10
0.0
 20
0.0
 11
1.0
 21
1.0
 12
-31.25655273617394
 22
-184.4658296703645
 13
0.0
 23
0.0
 14
50.0
 24
50.0
 15
100.0
 25
100.0
 16
0.0
 26
0.0
 36
1.0
 17
0.0
 27
0.0
 37
0.0
 40
1575.64899995466
 41
1.947815533980582
 42
50.0
 43
0.0
 44
0.0
 50
0.0
 51
0.0
 71
     0
 72
   500
 73
     1
 74
     0
 75
     0
 76
     0
 77
     0
 78
     0
  0
ENDTAB
  0
TABLE
  2
LTYPE
  5
5
330
0
100
AcDbSymbolTable
 70
     2
  0
LTYPE
  5
13
330
5
100
AcDbSymbolTableRecord
100
AcDbLinetypeTableRecord
  2
BYBLOCK
 70
     0
  3

 72
    65
 73
     0
 40
0.0
  0
LTYPE
  5
14
330
5
100
AcDbSymbolTableRecord
100
AcDbLinetypeTableRecord
  2
BYLAYER
 70
     0
  3

 72
    65
 73
     0
 40
0.0
  0
LTYPE
  5
15
330
5
100
AcDbSymbolTableRecord
100
AcDbLinetypeTableRecord
  2
CONTINUOUS
 70
     0
  3
実線
 72
    65
 73
     0
 40
0.0
  0
LTYPE
  5
23
330
5
100
AcDbSymbolTableRecord
100
AcDbLinetypeTableRecord
  2
DASHDOT
 70
     0
  3
____ _ ____ _ ____ _ ____ _ ____ _ ____ _ ____
 72
    65
 73
     4
 40
5.5
 49
4.0
 74
     0
 49
-0.6
 74
     0
 49
0.3
 74
     0
 49
-0.6
 74
     0
  0
ENDTAB
  0
TABLE
  2
LAYER
  5
2
330
0
100
AcDbSymbolTable
 70
    15
  0
LAYER
  5
10
330
2
100
AcDbSymbolTableRecord
100
AcDbLayerTableRecord
  2
0
 70
     0
 62
     7
  6
CONTINUOUS
  0
LAYER
  5
22
330
2
100
AcDbSymbolTableRecord
100
AcDbLayerTableRecord
  2
SIZE
 70
     0
 62
    30
  6
CONTINUOUS
  0
LAYER
  5
31
330
2
100
AcDbSymbolTableRecord
100
AcDbLayerTableRecord
  2
DETAIL
 70
     0
 62
     5
  6
CONTINUOUS
  0
LAYER
  5
32
330
2
100
AcDbSymbolTableRecord
100
AcDbLayerTableRecord
  2
OUTLINE
 70
     0
 62
     3
  6
CONTINUOUS
  0
LAYER
  5
33
330
2
100
AcDbSymbolTableRecord
100
AcDbLayerTableRecord
  2
BASIS
 70
     0
 62
     6
  6
DASHDOT
  0
LAYER
  5
34
330
2
100
AcDbSymbolTableRecord
100
AcDbLayerTableRecord
  2
NOTE
 70
     0
 62
     4
  6
CONTINUOUS
  0
LAYER
  5
35
330
2
100
AcDbSymbolTableRecord
100
AcDbLayerTableRecord
  2
ARRANGE
 70
     0
 62
     1
  6
CONTINUOUS
  0
LAYER
  5
37
330
2
100
AcDbSymbolTableRecord
100
AcDbLayerTableRecord
  2
ETC
 70
     0
 62
    61
  6
CONTINUOUS
  0
LAYER
  5
3A
330
2
100
AcDbSymbolTableRecord
100
AcDbLayerTableRecord
  2
DEFPOINTS
 70
     0
 62
     7
  6
CONTINUOUS
  0
LAYER
  5
183AE
330
2
100
AcDbSymbolTableRecord
100
AcDbLayerTableRecord
  2
FIX
 70
     0
 62
    11
  6
CONTINUOUS
  0
LAYER
  5
183AF
330
2
100
AcDbSymbolTableRecord
100
AcDbLayerTableRecord
  2
SERVICESPACE
 70
     0
 62
     2
  6
DASHDOT
  0
LAYER
  5
183B0
330
2
100
AcDbSymbolTableRecord
100
AcDbLayerTableRecord
  2
SYMBOLLINE
 70
     0
 62
    15
  6
CONTINUOUS
  0
ENDTAB
  0
TABLE
  2
STYLE
  5
3
330
0
100
AcDbSymbolTable
 70
     1
  0
STYLE
  5
11
330
3
100
AcDbSymbolTableRecord
100
AcDbTextStyleTableRecord
  2
STANDARD
 70
     0
 40
0.0
 41
0.9
 50
0.0
 71
     0
 42
64.0
  3
SIMPLEX
  4
BIGFONT
  0
ENDTAB
  0
TABLE
  2
VIEW
  5
6
330
0
100
AcDbSymbolTable
 70
     1
  0
VIEW
  5
3C
330
6
100
AcDbSymbolTableRecord
100
AcDbViewTableRecord
  2
ALL
 70
     0
 40
4282.62
 10
0.0
 20
41.30990399999999
 41
5940.0
 11
0.0
 21
0.0
 31
1.0
 12
0.0
 22
0.0
 32
0.0
 42
50.0
 43
0.0
 44
0.0
 50
0.0
 71
     0
  0
ENDTAB
  0
TABLE
  2
UCS
  5
7
330
0
100
AcDbSymbolTable
 70
     0
  0
ENDTAB
  0
TABLE
  2
APPID
  5
9
330
0
100
AcDbSymbolTable
 70
     1
  0
APPID
  5
12
330
9
100
AcDbSymbolTableRecord
100
AcDbRegAppTableRecord
  2
ACAD
 70
     0
  0
ENDTAB
  0
TABLE
  2
DIMSTYLE
  5
A
330
0
100
AcDbSymbolTable
 70
     1
  0
DIMSTYLE
105
213
330
A
100
AcDbSymbolTableRecord
100
AcDbDimStyleTableRecord
  2
STANDARD
 70
     0
  3

  4

  5

  6

  7

 40
1.0
 41
0.18
 42
0.0625
 43
0.38
 44
0.18
 45
0.0
 46
0.0
 47
0.0
 48
0.0
140
0.18
141
0.09
142
0.0
143
25.4
144
1.0
145
0.0
146
1.0
147
0.09
 71
     0
 72
     0
 73
     1
 74
     1
 75
     0
 76
     0
 77
     0
 78
     0
170
     0
171
     2
172
     0
173
     0
174
     0
175
     0
176
     0
177
     0
178
     0
270
     2
271
     4
272
     4
273
     2
274
     2
340
11
275
     0
280
     0
281
     0
282
     0
283
     1
284
     0
285
     0
286
     0
287
     3
288
     0
  0
ENDTAB
  0
TABLE
  2
BLOCK_RECORD
  5
1
330
0
100
AcDbSymbolTable
 70
    42
  0
BLOCK_RECORD
  5
1E
102
{ACAD_XDICTIONARY
360
18341
102
}
330
1
100
AcDbSymbolTableRecord
100
AcDbBlockTableRecord
  2
*MODEL_SPACE
  0
BLOCK_RECORD
  5
1A
102
{ACAD_XDICTIONARY
360
1833F
102
}
330
1
100
AcDbSymbolTableRecord
100
AcDbBlockTableRecord
  2
*PAPER_SPACE
  0
BLOCK_RECORD
  5
46
330
1
100
AcDbSymbolTableRecord
100
AcDbBlockTableRecord
  2
_ORIGIN
  0
ENDTAB
  0
ENDSEC
  0
SECTION
  2
BLOCKS
  0
BLOCK
  5
1F
330
1E
100
AcDbEntity
  8
0
100
AcDbBlockBegin
  2
*MODEL_SPACE
 70
     0
 10
0.0
 20
0.0
 30
0.0
  3
*MODEL_SPACE
  1

  0
ENDBLK
  5
20
330
1E
100
AcDbEntity
  8
0
100
AcDbBlockEnd
  0
BLOCK
  5
1B
330
1A
100
AcDbEntity
 67
     1
  8
0
100
AcDbBlockBegin
  2
*PAPER_SPACE
 70
     0
 10
0.0
 20
0.0
 30
0.0
  3
*PAPER_SPACE
  1

  0
ENDBLK
  5
1C
330
1A
100
AcDbEntity
 67
     1
  8
0
100
AcDbBlockEnd
  0
BLOCK
  5
47
330
46
100
AcDbEntity
  8
0
100
AcDbBlockBegin
  2
_ORIGIN
 70
     0
 10
0.0
 20
0.0
 30
0.0
  3
_ORIGIN
  1

  0
CIRCLE
  5
48
330
46
100
AcDbEntity
  8
0
  6
BYBLOCK
 62
     0
100
AcDbCircle
 10
0.0
 20
0.0
 30
0.0
 40
0.5
  0
LINE
  5
49
330
46
100
AcDbEntity
  8
0
  6
BYBLOCK
 62
     0
100
AcDbLine
 10
0.0
 20
0.0
 30
0.0
 11
-1.0
 21
0.0
 31
0.0
  0
ENDBLK
  5
4A
330
46
100
AcDbEntity
  8
0
100
AcDbBlockEnd
  0
ENDSEC
  0
SECTION
  2
ENTITIES
  0
LINE
  5
CE2F
330
1E
100
AcDbEntity
  8
DETAIL
  6
CONTINUOUS
100
AcDbLine
 10
-505.6938000000003
 20
-338.5712448290837
 30
0.0
 11
338.8659943134813
 21
-338.5711999723793
 31
0.0
  0
LINE
  5
CE30
330
1E
100
AcDbEntity
  8
DETAIL
  6
CONTINUOUS
100
AcDbLine
 10
-505.6938000000003
 20
-338.5558580229491
 30
0.0
 11
346.874502895486
 21
-338.5558580229483
 31
0.0
  0
LINE
  5
CE32
330
1E
100
AcDbEntity
  8
DETAIL
  6
CONTINUOUS
100
AcDbLine
 10
-505.6938000000003
 20
-314.6211661409138
 30
0.0
 11
347.2166162409306
 21
-314.6211661409138
 31
0.0
  0
LINE
  5
CE33
330
1E
100
AcDbEntity
  8
DETAIL
  6
CONTINUOUS
100
AcDbLine
 10
347.2413764206127
 20
-312.8889119639936
 30
0.0
 11
-504.560736789986
 21
-312.8891418396601
 31
0.0
  0
LINE
  5
CE34
330
1E
100
AcDbEntity
  8
DETAIL
  6
CONTINUOUS
100
AcDbLine
 10
-505.6938000000003
 20
-327.6827755479848
 30
0.0
 11
347.0299185841072
 21
-327.6827755479838
 31
0.0
  0
LINE
  5
CE35
330
1E
100
AcDbEntity
  8
DETAIL
  6
CONTINUOUS
100
AcDbLine
 10
346.7047307544532
 20
-350.433336466524
 30
0.0
 11
-505.6938000000003
 21
-350.4333364664921
 31
0.0
  0
LINE
  5
CE36
330
1E
100
AcDbEntity
  8
DETAIL
  6
CONTINUOUS
100
AcDbLine
 10
346.6939679870652
 20
-351.1863135854568
 30
0.0
 11
-505.6938000000003
 21
-351.1863135854568
 31
0.0
  0
LINE
  5
CE37
330
1E
100
AcDbEntity
  8
DETAIL
  6
CONTINUOUS
100
AcDbLine
 10
346.8420535600622
 20
-340.8260554749763
 30
0.0
 11
-505.6938000000003
 21
-340.8260554750227
 31
0.0
  0
LINE
  5
CE38
330
1E
100
AcDbEntity
  8
DETAIL
  6
CONTINUOUS
100
AcDbLine
 10
346.7432418042486
 20
-347.7390536413436
 30
0.0
 11
-505.6938000000003
 21
-347.739053641379
 31
0.0
  0
LINE
  5
CE39
330
1E
100
AcDbEntity
  8
DETAIL
  6
CONTINUOUS
100
AcDbLine
 10
346.8688795092806
 20
-338.9492773909218
 30
0.0
 11
-504.2912313104817
 21
-338.9494346486585
 31
0.0
  0
LINE
  5
CE3A
330
1E
100
AcDbEntity
  8
DETAIL
  6
CONTINUOUS
100
AcDbLine
 10
-490.3079087474065
 20
-346.54894679576
 30
0.0
 11
346.760252737013
 21
-346.5489467957509
 31
0.0
  0
SPLINE
  5
CE71
330
1E
100
AcDbEntity
  8
DETAIL
  6
CONTINUOUS
100
AcDbSpline
210
0.0
220
0.0
230
1.0
 70
     8
 71
     3
 72
    20
 73
    16
 74
    14
 42
0.0000000001
 43
0.0000000001
 44
0.00000001
 40
0.0
 40
0.0
 40
0.0
 40
0.0
 40
6.921011155021449
 40
21.85066903683503
 40
43.70178172461538
 40
71.38737749186025
 40
109.8450761509416
 40
142.7947733949742
 40
212.4389711647418
 40
285.6549770373893
 40
430.5803414442258
 40
571.4742075884946
 40
767.7607467709801
 40
958.2761891894978
 40
1144.01762375183
 40
1144.01762375183
 40
1144.01762375183
 40
1144.01762375183
 10
-570.5918905553073
 20
-286.6712273441139
 30
0.0
 10
-568.2903845066447
 20
-286.5120485532956
 30
0.0
 10
-561.0241851261882
 20
-286.0094972879614
 30
0.0
 10
-546.4891191930514
 20
-285.0412291969159
 30
0.0
 10
-525.0444078513596
 20
-283.6651923680753
 30
0.0
 10
-495.7672929570513
 20
-281.8794571021275
 30
0.0
 10
-462.7897064754727
 20
-279.9995274170181
 30
0.0
 10
-415.837648404658
 20
-277.523753884998
 30
0.0
 10
-357.2971807916836
 20
-274.7943535138166
 30
0.0
 10
-261.4373835527105
 20
-271.1380154204884
 30
0.0
 10
-141.7905891409037
 20
-268.1236085839913
 30
0.0
 10
18.9133391014132
 20
-266.7858753568945
 30
0.0
 10
194.8124683581387
 20
-268.8714259396224
 30
0.0
 10
385.5812287143613
 20
-275.1161390943408
 30
0.0
 10
510.7766176966452
 20
-282.6829641576992
 30
0.0
 10
572.5800625575052
 20
-286.4183721490703
 30
0.0
 11
-570.5918905553073
 21
-286.6712273441139
 31
0.0
 11
-563.6872460183544
 21
-286.195539179122
 31
0.0
 11
-548.7908508774446
 21
-285.1994988706833
 31
0.0
 11
-526.9846099224045
 21
-283.7998628103546
 31
0.0
 11
-499.3504279430521
 21
-282.113387389691
 31
0.0
 11
-460.9550762223038
 21
-279.9244258770816
 31
0.0
 11
-428.0510974151215
 21
-278.1892811128968
 31
0.0
 11
-358.4824809234298
 21
-274.9455360125525
 31
0.0
 11
-285.3196739191728
 21
-272.1549828717129
 31
0.0
 11
-140.4403345088607
 21
-268.502824578951
 31
0.0
 11
0.4486968135430516
 21
-267.3356185007471
 31
0.0
 11
196.722324229599
 21
-269.586983665577
 31
0.0
 11
387.1279038170656
 21
-276.0560687508919
 31
0.0
 11
572.5800625575052
 21
-286.4183721490703
 31
0.0
  0
SPLINE
  5
CE73
330
1E
100
AcDbEntity
  8
DETAIL
  6
CONTINUOUS
100
AcDbSpline
210
0.0
220
0.0
230
1.0
 70
     8
 71
     3
 72
    16
 73
    12
 74
    10
 42
0.0000000001
 43
0.0000000001
 44
0.00000001
 40
0.0
 40
0.0
 40
0.0
 40
0.0
 40
192.2626593961265
 40
384.5253187880588
 40
480.6568831457308
 40
576.7884474556324
 40
659.6582527267387
 40
713.506398007993
 40
745.1465101974495
 40
761.3922169950334
 40
769.0571494991934
 40
769.0571494991934
 40
769.0571494991934
 40
769.0571494991934
 10
199.7999999999998
 20
-287.1188473436273
 30
0.0
 10
135.7124468720361
 20
-287.1188629505575
 30
0.0
 10
7.537340617506956
 20
-287.1188941791318
 30
0.0
 10
-152.6816204820447
 20
-287.1188137610088
 30
0.0
 10
-280.8568830622845
 20
-287.1184461003035
 30
0.0
 10
-372.5678613497553
 20
-287.1180935019692
 30
0.0
 10
-450.1843654012838
 20
-287.1164496241244
 30
0.0
 10
-506.3037215427737
 20
-287.1156439823558
 30
0.0
 10
-540.2150394176824
 20
-287.1095180481892
 30
0.0
 10
-558.7319610919562
 20
-287.1072466069022
 30
0.0
 10
-566.7021653918811
 20
-287.0949973192922
 30
0.0
 10
-569.2571400720875
 20
-287.0910706233757
 30
0.0
 11
199.7999999999998
 21
-287.1188473436273
 31
0.0
 11
7.537340603882171
 21
-287.1188702783715
 31
0.0
 11
-184.7253187879716
 21
-287.1186965589171
 31
0.0
 11
-280.8568831452752
 21
-287.1184304489436
 31
0.0
 11
-376.9884474529638
 21
-287.1177781822138
 31
0.0
 11
-459.8582527119173
 21
-287.1163589774155
 31
0.0
 11
-513.706397925412
 21
-287.1136576069388
 31
0.0
 11
-545.3465097713299
 21
-287.1089950829759
 31
0.0
 11
-561.5922149275896
 21
-287.101692417726
 31
0.0
 11
-569.2571400720875
 21
-287.0910706233757
 31
0.0
  0
SPLINE
  5
CE74
330
1E
100
AcDbEntity
  8
DETAIL
  6
CONTINUOUS
100
AcDbSpline
210
0.0
220
0.0
230
1.0
 70
     8
 71
     3
 72
    14
 73
    10
 74
     8
 42
0.0000000001
 43
0.0000000001
 44
0.00000001
 40
0.0
 40
0.0
 40
0.0
 40
0.0
 40
50.78678955624763
 40
148.9698910673678
 40
286.1633213035412
 40
432.5841754195185
 40
572.4993867028248
 40
866.2548072670272
 40
1144.975869898573
 40
1144.975869898573
 40
1144.975869898573
 40
1144.975869898573
 10
-571.8623918312325
 20
-285.6418623227913
 30
0.0
 10
-554.9664902590111
 20
-284.5850323344364
 30
0.0
 10
-505.4067398051819
 20
-281.4850953498756
 30
0.0
 10
-410.1692945590476
 20
-276.098565319557
 30
0.0
 10
-283.008315959648
 20
-270.7931443918468
 30
0.0
 10
-141.8687725068817
 20
-267.2157016979145
 30
0.0
 10
51.49149967273544
 20
-265.6933564229812
 30
0.0
 10
289.0040600711274
 20
-269.2774048487935
 30
0.0
 10
479.5330370709897
 20
-280.1891755335436
 30
0.0
 10
572.2956928133612
 20
-285.5017786078738
 30
0.0
 11
-571.8623918312325
 21
-285.6418623227913
 31
0.0
 11
-521.1725226997254
 21
-282.5057563169707
 31
0.0
 11
-423.1419732385724
 21
-277.0346691567596
 31
0.0
 11
-286.069161863353
 21
-271.2830014232569
 31
0.0
 11
-139.6947184716512
 21
-267.5966967866684
 31
0.0
 11
0.2157333368346599
 21
-266.4426503246362
 31
0.0
 11
293.9281691993206
 21
-271.4678001464839
 31
0.0
 11
572.2956928133612
 21
-285.5017786078738
 31
0.0
  0
SPLINE
  5
CE75
330
1E
100
AcDbEntity
  8
DETAIL
  6
CONTINUOUS
100
AcDbSpline
210
0.0
220
0.0
230
1.0
 70
     8
 71
     3
 72
    11
 73
     7
 74
     5
 42
0.0000000001
 43
0.0000000001
 44
0.00000001
 40
0.0
 40
0.0
 40
0.0
 40
0.0
 40
268.214601215749
 40
569.1874000919742
 40
860.5350781900432
 40
1138.461390246572
 40
1138.461390246572
 40
1138.461390246572
 40
1138.461390246572
 10
569.2304329295044
 20
-30.62370964193041
 30
0.0
 10
479.8256588621654
 20
-30.7564013856906
 30
0.0
 10
290.0967228663562
 20
-31.03799106842474
 30
0.0
 10
3.251668497144521
 20
-31.15027331433872
 30
0.0
 10
-286.8306216095794
 20
-31.04074061315703
 30
0.0
 10
-476.5884240001761
 20
-30.76051856165349
 30
0.0
 10
-569.2304331459702
 20
-30.62371082597973
 30
0.0
 11
569.2304329295044
 21
-30.62370964193041
 31
0.0
 11
301.0160627441623
 21
-30.97574856828805
 31
0.0
 11
0.0432948564963454
 21
-31.11232613448965
 31
0.0
 11
-291.3043551656186
 21
-30.98442096529697
 31
0.0
 11
-569.2304331459702
 21
-30.62371082597973
 31
0.0
  0
SPLINE
  5
CE76
330
1E
100
AcDbEntity
  8
DETAIL
  6
CONTINUOUS
100
AcDbSpline
210
0.0
220
0.0
230
1.0
 70
     8
 71
     3
 72
    11
 73
     7
 74
     5
 42
0.0000000001
 43
0.0000000001
 44
0.00000001
 40
0.0
 40
0.0
 40
0.0
 40
0.0
 40
267.9780980605311
 40
569.1383147682986
 40
857.7274455957406
 40
1138.363211745544
 40
1138.363211745544
 40
1138.363211745544
 40
1138.363211745544
 10
569.1813437053466
 20
-29.62531692291895
 30
0.0
 10
479.8554039946941
 20
-29.75791993730573
 30
0.0
 10
290.1428298703073
 20
-30.03954538545382
 30
0.0
 10
4.233652996283353
 20
-30.15152825120049
 30
0.0
 10
-285.8947449832691
 20
-30.04311134939984
 30
0.0
 10
-475.6361838196978
 20
-29.76328093548857
 30
0.0
 10
-569.1813438100393
 20
-29.6253206542865
 30
0.0
 11
569.1813437053466
 21
-29.62531692291895
 31
0.0
 11
301.2034766263501
 21
-29.97716338591862
 31
0.0
 11
0.0432909757843163
 21
-30.11393469837685
 31
0.0
 11
-288.5458125565741
 21
-29.9884192288141
 31
0.0
 11
-569.1813438100393
 21
-29.6253206542865
 31
0.0
  0
LINE
  5
CE77
330
1E
100
AcDbEntity
  8
DETAIL
  6
CONTINUOUS
100
AcDbLine
 10
-569.6471393041205
 20
-289.5763355839211
 30
0.0
 11
569.6471393041142
 21
-289.5763355839211
 31
0.0
  0
LINE
  5
CE87
330
1E
100
AcDbEntity
  8
DETAIL
  6
CONTINUOUS
100
AcDbLine
 10
510.6630192444068
 20
-309.2696826604001
 30
0.0
 11
-514.6064129692835
 21
-309.2696826604001
 31
0.0
  0
LINE
  5
CE88
330
1E
100
AcDbEntity
  8
DETAIL
  6
CONTINUOUS
100
AcDbLine
 10
-569.4068108756978
 20
-300.2084835180562
 30
0.0
 11
569.4068108756897
 21
-300.208128675405
 31
0.0
  0
LINE
  5
CE8B
330
1E
100
AcDbEntity
  8
DETAIL
  6
CONTINUOUS
100
AcDbLine
 10
-507.4933220777706
 20
-352.2412327832074
 30
0.0
 11
346.6788893736798
 21
-352.2412328693591
 31
0.0
  0
LINE
  5
CE8E
330
1E
100
AcDbEntity
  8
DETAIL
  6
CONTINUOUS
100
AcDbLine
 10
346.5143808480103
 20
-363.7504619779941
 30
0.0
 11
-513.4971716889626
 21
-363.7504619779377
 31
0.0
  0
LINE
  5
CE8F
330
1E
100
AcDbEntity
  8
DETAIL
  6
CONTINUOUS
100
AcDbLine
 10
348.2410030327343
 20
-365.5640603536762
 30
0.0
 11
-513.0860483777462
 21
-365.5640603536762
 31
0.0
  0
ARC
  5
D2B6
330
1E
100
AcDbEntity
  8
DETAIL
  6
CONTINUOUS
100
AcDbCircle
 10
-579.2029301795677
 20
-359.2411147525076
 30
0.0
 40
5.800205444381687
100
AcDbArc
 50
178.1159280010898
 51
270.780335320741
  0
LINE
  5
D2E6
330
1E
100
AcDbEntity
  8
DETAIL
  6
CONTINUOUS
100
AcDbLine
 10
-527.3741203970778
 20
-365.0407822691581
 30
0.0
 11
-579.123937184056
 21
-365.0407822691581
 31
0.0
  0
LINE
  5
D4BC
330
1E
100
AcDbEntity
  8
DETAIL
  6
CONTINUOUS
100
AcDbLine
 10
-579.180844003807
 20
-276.9559121365578
 30
0.0
 11
-579.1808439576392
 21
-39.59364923052863
 31
0.0
  0
LINE
  5
D4BD
330
1E
100
AcDbEntity
  8
DETAIL
  6
CONTINUOUS
100
AcDbLine
 10
-578.2323156795622
 20
-276.9559121365578
 30
0.0
 11
-578.2323113618325
 21
-39.59364021157444
 31
0.0
  0
LINE
  5
D4BF
330
1E
100
AcDbEntity
  8
DETAIL
  6
CONTINUOUS
100
AcDbLine
 10
-579.8809780490603
 20
-286.9410561819636
 30
0.0
 11
-579.8808053846491
 21
-34.62897621570528
 31
0.0
  0
LINE
  5
D4C0
330
1E
100
AcDbEntity
  8
DETAIL
  6
CONTINUOUS
100
AcDbLine
 10
-585.0000000000049
 20
-359.0504194615027
 30
0.0
 11
-585.0000000000029
 21
-5.994364575403324
 31
0.0
  0
LINE
  5
D529
330
1E
100
AcDbEntity
  8
DETAIL
  6
CONTINUOUS
100
AcDbLine
 10
-579.8809527230272
 20
-249.9324781324579
 30
0.0
 11
-581.0828582549866
 21
-251.1445044228262
 31
0.0
  0
ARC
  5
D542
330
1E
100
AcDbEntity
  8
DETAIL
  6
CONTINUOUS
100
AcDbCircle
 10
-577.5687534706569
 20
-254.6826208618953
 30
0.0
 40
4.995696604885851
100
AcDbArc
 50
134.9945764741109
 51
179.9945766867223
  0
ARC
  5
D543
330
1E
100
AcDbEntity
  8
DETAIL
  6
CONTINUOUS
100
AcDbCircle
 10
-577.5687534706569
 20
-264.5300503059502
 30
0.0
 40
4.995696604886362
100
AcDbArc
 50
180.0054233132516
 51
225.005423525889
  0
LINE
  5
D54C
330
1E
100
AcDbEntity
  8
DETAIL
  6
CONTINUOUS
100
AcDbLine
 10
-581.0828582549397
 20
-268.0681667450303
 30
0.0
 11
-579.8809659632146
 21
-269.2801796836996
 31
0.0
  0
LINE
  5
D552
330
1E
100
AcDbEntity
  8
DETAIL
  6
CONTINUOUS
100
AcDbLine
 10
-582.5644500531701
 20
-264.5305231719762
 30
0.0
 11
-582.5644500531701
 21
-254.6821479958675
 31
0.0
  0
ARC
  5
D69F
330
1E
100
AcDbEntity
  8
DETAIL
  6
CONTINUOUS
100
AcDbCircle
 10
-579.1973769735334
 20
-5.805132167939972
 30
0.0
 40
5.805707785565044
100
AcDbArc
 50
89.19317253462908
 51
181.8678409896705
  0
LINE
  5
13242
330
1E
100
AcDbEntity
  8
DETAIL
  6
CONTINUOUS
100
AcDbLine
 10
346.9652410246894
 20
-332.2077012105887
 30
0.0
 11
-89.90999999994835
 21
-332.2106916542438
 31
0.0
  0
LINE
  5
13259
330
1E
100
AcDbEntity
  8
DETAIL
  6
CONTINUOUS
100
AcDbLine
 10
97.80209999999771
 20
-352.0115198534888
 30
0.0
 11
346.6821728038036
 21
-352.0115198534888
 31
0.0
  0
LINE
  5
13892
330
1E
100
AcDbEntity
  8
DETAIL
  6
CONTINUOUS
100
AcDbLine
 10
328.6710000000045
 20
-359.4203276340763
 30
0.0
 11
328.6710000000045
 21
-360.3635246714524
 31
0.0
  0
LINE
  5
13893
330
1E
100
AcDbEntity
  8
DETAIL
  6
CONTINUOUS
100
AcDbLine
 10
327.6719999999956
 20
-359.4203276340763
 30
0.0
 11
327.6719999999956
 21
-360.3635246714524
 31
0.0
  0
ARC
  5
1389D
330
1E
100
AcDbEntity
  8
DETAIL
  6
CONTINUOUS
100
AcDbCircle
 10
579.2029301795561
 20
-359.2411147525093
 30
0.0
 40
5.800205444382592
100
AcDbArc
 50
269.2196646774799
 51
1.884071998893643
  0
LINE
  5
138A0
330
1E
100
AcDbEntity
  8
DETAIL
  6
CONTINUOUS
100
AcDbLine
 10
579.1239371838789
 20
-365.0407822691581
 30
0.0
 11
362.5291173567026
 21
-365.0407822691581
 31
0.0
  0
ARC
  5
138AC
330
1E
100
AcDbEntity
  8
DETAIL
  6
CONTINUOUS
100
AcDbCircle
 10
328.1714999999991
 20
-357.3728870054914
 30
0.0
 40
3.032064296657771
100
AcDbArc
 50
260.5179126545465
 51
279.4820873454534
  0
LINE
  5
138C2
330
1E
100
AcDbEntity
  8
DETAIL
  6
CONTINUOUS
100
AcDbLine
 10
335.7870597958631
 20
-364.3614504100674
 30
0.0
 11
320.5559325491691
 21
-364.3605996343489
 31
0.0
  0
SPLINE
  5
138E9
330
1E
100
AcDbEntity
  8
DETAIL
  6
CONTINUOUS
100
AcDbSpline
210
0.0
220
0.0
230
1.0
 70
     8
 71
     3
 72
    11
 73
     7
 74
     5
 42
0.0000000001
 43
0.0000000001
 44
0.00000001
 40
0.0
 40
0.0
 40
0.0
 40
0.0
 40
40.50612723813538
 40
81.01225447625642
 40
121.4811621046716
 40
161.9500697330726
 40
161.9500697330726
 40
161.9500697330726
 40
161.9500697330726
 10
509.2046789522397
 20
-314.6195619493923
 30
0.0
 10
495.702636539528
 20
-314.6195615550694
 30
0.0
 10
468.6985517141093
 20
-314.6195607514232
 30
0.0
 10
428.2048310125509
 20
-314.6195666719547
 30
0.0
 10
387.7235168475763
 20
-314.6195442148577
 30
0.0
 10
360.7442450953064
 20
-314.6195339912296
 30
0.0
 10
347.2546092191738
 20
-314.6195288719159
 30
0.0
 11
509.2046789522397
 21
-314.6195619493923
 31
0.0
 11
468.6985517141043
 21
-314.6195619493923
 31
0.0
 11
428.1924244759832
 21
-314.6195619493923
 31
0.0
 11
387.7235168475714
 21
-314.6195454106532
 31
0.0
 11
347.2546092191738
 21
-314.6195288719159
 31
0.0
  0
SPLINE
  5
138EA
330
1E
100
AcDbEntity
  8
DETAIL
  6
CONTINUOUS
100
AcDbSpline
210
0.0
220
0.0
230
1.0
 70
     8
 71
     3
 72
    11
 73
     7
 74
     5
 42
0.0000000001
 43
0.0000000001
 44
0.00000001
 40
0.0
 40
0.0
 40
0.0
 40
0.0
 40
40.5078688300199
 40
81.01573766003282
 40
121.4821095320953
 40
161.9484814041507
 40
161.9484814041507
 40
161.9484814041507
 40
161.9484814041507
 10
509.2116453197927
 20
-313.4094112417737
 30
0.0
 10
495.7090223764527
 20
-313.4094110850413
 30
0.0
 10
468.7037764897752
 20
-313.4094107565758
 30
0.0
 10
428.2097399790764
 20
-313.4094131137899
 30
0.0
 10
387.7295357877002
 20
-313.4094041862335
 30
0.0
 10
360.7519545396613
 20
-313.409400133119
 30
0.0
 10
347.263163915643
 20
-313.4093980990621
 30
0.0
 11
509.2116453197927
 21
-313.4094112417737
 31
0.0
 11
468.7037764897728
 21
-313.4094112416955
 31
0.0
 11
428.1959076597599
 21
-313.4094112416846
 31
0.0
 11
387.7295357876978
 21
-313.4094046703726
 31
0.0
 11
347.263163915643
 21
-313.4093980990621
 31
0.0
  0
LINE
  5
138ED
330
1E
100
AcDbEntity
  8
DETAIL
  6
CONTINUOUS
100
AcDbLine
 10
509.2230459586576
 20
-312.276535389527
 30
0.0
 11
345.4040904375456
 21
-312.276535389527
 31
0.0
  0
SPLINE
  5
138EF
330
1E
100
AcDbEntity
  8
DETAIL
  6
CONTINUOUS
100
AcDbSpline
210
0.0
220
0.0
230
1.0
 70
    24
 71
     3
 72
     9
 73
     5
 74
     3
 42
0.0000000001
 43
0.0000000001
 44
0.00000001
 40
0.0
 40
0.0
 40
0.0
 40
0.0
 40
185.0415892206202
 40
369.4614989230665
 40
369.4614989230665
 40
369.4614989230665
 40
369.4614989230665
 10
199.8000000000016
 20
-287.1188473436268
 30
0.0
 10
261.4805297402083
 20
-287.118847343627
 30
0.0
 10
384.6343627145638
 20
-287.1188473436271
 30
0.0
 10
507.7881956889194
 20
-287.1188473436273
 30
0.0
 10
569.2614989230682
 20
-287.1188473436273
 30
0.0
 11
199.8000000000016
 21
-287.1188473436268
 31
0.0
 11
384.8415892206218
 21
-287.1188473436273
 31
0.0
 11
569.2614989230682
 21
-287.1188473436273
 31
0.0
  0
LINE
  5
13909
330
1E
100
AcDbEntity
  8
DETAIL
  6
CONTINUOUS
100
AcDbLine
 10
509.9916880187525
 20
-356.5955089793573
 30
0.0
 11
346.6385741638227
 21
-356.5955089793573
 31
0.0
  0
LINE
  5
13915
330
1E
100
AcDbEntity
  8
DETAIL
  6
CONTINUOUS
100
AcDbLine
 10
329.1704999999971
 20
-358.0247150641539
 30
0.0
 11
331.1133227885898
 21
-358.0247150641584
 31
0.0
  0
LINE
  5
13916
330
1E
100
AcDbEntity
  8
DETAIL
  6
CONTINUOUS
100
AcDbLine
 10
335.1644999999958
 20
-353.2076798758503
 30
0.0
 11
321.1785000000042
 21
-353.2076798758503
 31
0.0
  0
LINE
  5
13918
330
1E
100
AcDbEntity
  8
DETAIL
  6
CONTINUOUS
100
AcDbLine
 10
335.2984113468015
 20
-353.0798116661421
 30
0.0
 11
330.0431259001167
 21
-353.0798116661421
 31
0.0
  0
SPLINE
  5
13922
330
1E
100
AcDbEntity
  8
DETAIL
  6
CONTINUOUS
100
AcDbSpline
210
0.0
220
0.0
230
1.0
 70
     8
 71
     3
 72
     9
 73
     5
 74
     3
 42
0.0000000001
 43
0.0000000001
 44
0.00000001
 40
0.0
 40
0.0
 40
0.0
 40
0.0
 40
0.6902388045772212
 40
1.381921949559596
 40
1.381921949559596
 40
1.381921949559596
 40
1.381921949559596
 10
328.1715000000009
 20
-354.1229993591373
 30
0.0
 10
328.0050036848084
 20
-354.281793671893
 30
0.0
 10
327.671662670909
 20
-354.5997145925801
 30
0.0
 10
327.3390034472694
 20
-354.9183488415629
 30
0.0
 10
327.1725000000046
 20
-355.0778324864263
 30
0.0
 11
328.1715000000009
 21
-354.1229993591373
 31
0.0
 11
327.6721811527719
 21
-354.5995602641179
 31
0.0
 11
327.1725000000046
 21
-355.0778324864263
 31
0.0
  0
SPLINE
  5
13923
330
1E
100
AcDbEntity
  8
DETAIL
  6
CONTINUOUS
100
AcDbSpline
210
0.0
220
0.0
230
1.0
 70
     8
 71
     3
 72
     9
 73
     5
 74
     3
 42
0.0000000001
 43
0.0000000001
 44
0.00000001
 40
0.0
 40
0.0
 40
0.0
 40
0.0
 40
0.6916831449823757
 40
1.381921949559596
 40
1.381921949559596
 40
1.381921949559596
 40
1.381921949559596
 10
329.1704999999971
 20
-355.0778324864263
 30
0.0
 10
329.0039965527323
 20
-354.9183488415629
 30
0.0
 10
328.6713373290926
 20
-354.5997145925801
 30
0.0
 10
328.3379963151933
 20
-354.2817936718928
 30
0.0
 10
328.1715000000009
 20
-354.1229993591373
 30
0.0
 11
329.1704999999971
 21
-355.0778324864263
 31
0.0
 11
328.6708188472299
 21
-354.5995602641179
 31
0.0
 11
328.1715000000009
 21
-354.1229993591373
 31
0.0
  0
ARC
  5
13924
330
1E
100
AcDbEntity
  8
DETAIL
  6
CONTINUOUS
100
AcDbCircle
 10
321.1800494035857
 20
-353.7087292943201
 30
0.0
 40
0.5010518140872723
100
AcDbArc
 50
90.17717614253715
 51
180.1777257298578
  0
LINE
  5
1392A
330
1E
100
AcDbEntity
  8
DETAIL
  6
CONTINUOUS
100
AcDbLine
 10
320.6790000000006
 20
-353.7102835040253
 30
0.0
 11
320.6790000000006
 21
-364.3605950045333
 31
0.0
  0
LINE
  5
1392E
330
1E
100
AcDbEntity
  8
DETAIL
  6
CONTINUOUS
100
AcDbLine
 10
329.1704999999971
 20
-355.0778324864263
 30
0.0
 11
329.1704999999971
 21
-358.0247150641539
 31
0.0
  0
LINE
  5
1392F
330
1E
100
AcDbEntity
  8
DETAIL
  6
CONTINUOUS
100
AcDbLine
 10
327.1725000000011
 20
-355.0778324864263
 30
0.0
 11
327.1725000000011
 21
-358.0247150641539
 31
0.0
  0
LINE
  5
13930
330
1E
100
AcDbEntity
  8
DETAIL
  6
CONTINUOUS
100
AcDbLine
 10
327.6719999999956
 20
-359.4203276340763
 30
0.0
 11
328.6710000000045
 21
-359.4203276340763
 31
0.0
  0
LINE
  5
13931
330
1E
100
AcDbEntity
  8
DETAIL
  6
CONTINUOUS
100
AcDbLine
 10
325.2296772113973
 20
-358.0247150641539
 30
0.0
 11
327.1725000000011
 21
-358.0247150641539
 31
0.0
  0
ARC
  5
13934
330
1E
100
AcDbEntity
  8
DETAIL
  6
CONTINUOUS
100
AcDbCircle
 10
321.0489805481417
 20
-353.5814874154679
 30
0.0
 40
0.5016949732673554
100
AcDbArc
 50
90.50158018700711
 51
180.2413389091314
  0
ARC
  5
13936
330
1E
100
AcDbEntity
  8
DETAIL
  6
CONTINUOUS
100
AcDbCircle
 10
328.1714999999991
 20
-358.7234913654451
 30
0.0
 40
5.945931723315752
100
AcDbArc
 50
71.65281701720397
 51
108.3471829828001
  0
LINE
  5
13939
330
1E
100
AcDbEntity
  8
DETAIL
  6
CONTINUOUS
100
AcDbLine
 10
320.5559325491691
 20
-364.3605996343489
 30
0.0
 11
320.5472900254759
 21
-353.5836006280037
 31
0.0
  0
LINE
  5
13941
330
1E
100
AcDbEntity
  8
DETAIL
  6
CONTINUOUS
100
AcDbLine
 10
326.2998740998813
 20
-353.0798116661431
 30
0.0
 11
321.0445886531966
 21
-353.0798116661421
 31
0.0
  0
ARC
  5
13A32
330
1E
100
AcDbEntity
  8
DETAIL
  6
CONTINUOUS
100
AcDbCircle
 10
335.1629505964123
 20
-353.7087292943191
 30
0.0
 40
0.5010518140870133
100
AcDbArc
 50
359.8222742700901
 51
89.82282385746286
  0
LINE
  5
13A37
330
1E
100
AcDbEntity
  8
DETAIL
  6
CONTINUOUS
100
AcDbLine
 10
335.6639999999992
 20
-353.7102835040253
 30
0.0
 11
335.6639999999992
 21
-364.3605950045333
 31
0.0
  0
LINE
  5
13A44
330
1E
100
AcDbEntity
  8
DETAIL
  6
CONTINUOUS
100
AcDbLine
 10
335.7870597958631
 20
-364.3614504100674
 30
0.0
 11
335.7957099745241
 21
-353.5836006280037
 31
0.0
  0
LINE
  5
13D08
330
1E
100
AcDbEntity
  8
DETAIL
  6
CONTINUOUS
100
AcDbLine
 10
579.1808439576312
 20
-39.59364923052863
 30
0.0
 11
579.1808440035334
 21
-276.9559121348752
 31
0.0
  0
LINE
  5
13D0A
330
1E
100
AcDbEntity
  8
DETAIL
  6
CONTINUOUS
100
AcDbLine
 10
579.8808053813105
 20
-34.62897625503728
 30
0.0
 11
579.8808049579717
 21
-286.9417386338831
 31
0.0
  0
LINE
  5
13D0B
330
1E
100
AcDbEntity
  8
DETAIL
  6
CONTINUOUS
100
AcDbLine
 10
584.9999999999949
 20
-359.0504194615063
 30
0.0
 11
584.9999999999965
 21
-5.994364575402412
 31
0.0
  0
LINE
  5
13D14
330
1E
100
AcDbEntity
  8
DETAIL
  6
CONTINUOUS
100
AcDbLine
 10
491.857807896417
 20
-335.8190148703573
 30
0.0
 11
468.3891803081229
 21
-335.8190149899423
 31
0.0
  0
LINE
  5
13D16
330
1E
100
AcDbEntity
  8
DETAIL
  6
CONTINUOUS
100
AcDbLine
 10
491.857828220233
 20
-343.6622852137683
 30
0.0
 11
468.3891599901222
 21
-343.6622852137683
 31
0.0
  0
LINE
  5
13D17
330
1E
100
AcDbEntity
  8
DETAIL
  6
CONTINUOUS
100
AcDbLine
 10
491.8578282210078
 20
-343.5478222933991
 30
0.0
 11
468.3891599893473
 21
-343.5478221690348
 31
0.0
  0
LINE
  5
13D19
330
1E
100
AcDbEntity
  8
DETAIL
  6
CONTINUOUS
100
AcDbLine
 10
491.8960481055441
 20
-343.9018096022066
 30
0.0
 11
468.350940018398
 21
-343.9018097426128
 31
0.0
  0
LINE
  5
13D1B
330
1E
100
AcDbEntity
  8
DETAIL
  6
CONTINUOUS
100
AcDbLine
 10
491.8946749903522
 20
-334.4695271865416
 30
0.0
 11
468.3523147747006
 21
-334.4695272801241
 31
0.0
  0
LINE
  5
13DA1
330
1E
100
AcDbEntity
  8
DETAIL
  6
CONTINUOUS
100
AcDbLine
 10
476.8827919437684
 20
-329.5237493276931
 30
0.0
 11
471.7686550069561
 21
-329.5237493278087
 31
0.0
  0
LINE
  5
13DA3
330
1E
100
AcDbEntity
  8
DETAIL
  6
CONTINUOUS
100
AcDbLine
 10
476.8850890490837
 20
-331.942861652356
 30
0.0
 11
471.7663590777016
 21
-331.9428614023613
 31
0.0
  0
LINE
  5
13E5A
330
1E
100
AcDbEntity
  8
DETAIL
  6
CONTINUOUS
100
AcDbLine
 10
578.2323156792759
 20
-276.9559121348752
 30
0.0
 11
578.2323113618246
 21
-39.59364021157444
 31
0.0
  0
ARC
  5
13ECE
330
1E
100
AcDbEntity
  8
DETAIL
  6
CONTINUOUS
100
AcDbCircle
 10
579.197376973522
 20
-5.805132167943611
 30
0.0
 40
5.805707785568477
100
AcDbArc
 50
358.1321590103671
 51
90.8068274653347
  0
LINE
  5
16431
330
1E
100
AcDbEntity
  8
BASIS
  6
CONTINUOUS
100
AcDbLine
 10
-0.0000000000121645
 20
-397.0562047240314
 30
0.0
 11
0.0000000000005684
 21
18.5445575985791
 31
0.0
  0
LINE
  5
16483
330
1E
100
AcDbEntity
  8
DETAIL
  6
CONTINUOUS
100
AcDbLine
 10
579.1156248841382
 20
0.0000000000004547
 30
0.0
 11
-579.1156248841465
 21
-0.0000000000004547
 31
0.0
  0
LINE
  5
16484
330
1E
100
AcDbEntity
  8
DETAIL
  6
CONTINUOUS
100
AcDbLine
 10
348.2410030327343
 20
-365.5640603536762
 30
0.0
 11
362.5291173567061
 21
-365.0407822691581
 31
0.0
  0
LINE
  5
16485
330
1E
100
AcDbEntity
  8
DETAIL
  6
CONTINUOUS
100
AcDbLine
 10
-513.0860483777462
 20
-365.5640603536762
 30
0.0
 11
-527.374120397074
 21
-365.0407822691581
 31
0.0
  0
LINE
  5
16486
330
1E
100
AcDbEntity
  8
DETAIL
  6
CONTINUOUS
100
AcDbLine
 10
-569.9940222986801
 20
-24.06033972358863
 30
0.0
 11
-578.9416251271298
 21
-0.0000000028508111
 31
0.0
  0
LINE
  5
16487
330
1E
100
AcDbEntity
  8
DETAIL
  6
CONTINUOUS
100
AcDbLine
 10
-579.8808053846472
 20
-34.62897621570528
 30
0.0
 11
-585.0000000000049
 21
-5.994364575403324
 31
0.0
  0
ARC
  5
16488
330
1E
100
AcDbEntity
  8
DETAIL
  6
CONTINUOUS
100
AcDbCircle
 10
-569.6968936129427
 20
-34.24707719824209
 30
0.0
 40
10.19106990621841
100
AcDbArc
 50
91.67074043055523
 51
182.1475984963266
  0
LINE
  5
16489
330
1E
100
AcDbEntity
  8
DETAIL
  6
CONTINUOUS
100
AcDbLine
 10
-569.9940222986801
 20
-24.06033972358682
 30
0.0
 11
569.9940224104762
 21
-24.06033930873717
 31
0.0
  0
ARC
  5
1648A
330
1E
100
AcDbEntity
  8
DETAIL
  6
CONTINUOUS
100
AcDbCircle
 10
569.6966310409176
 20
-34.24732242518121
 30
0.0
 40
10.19132310553299
100
AcDbArc
 50
357.8538343016593
 51
88.32782364910267
  0
LINE
  5
1648B
330
1E
100
AcDbEntity
  8
DETAIL
  6
CONTINUOUS
100
AcDbLine
 10
569.9940224105618
 20
-24.06033930874082
 30
0.0
 11
578.9416251271219
 21
-0.0000000028499016
 31
0.0
  0
LINE
  5
1648C
330
1E
100
AcDbEntity
  8
DETAIL
  6
CONTINUOUS
100
AcDbLine
 10
579.8808053813087
 20
-34.62897625500817
 30
0.0
 11
584.9999999999965
 21
-5.994364575402412
 31
0.0
  0
ARC
  5
1648D
330
1E
100
AcDbEntity
  8
DETAIL
  6
CONTINUOUS
100
AcDbCircle
 10
569.7972388944442
 20
-289.7485019651633
 30
0.0
 40
10.46691095574175
100
AcDbArc
 50
267.8623045028901
 51
15.55455819075237
  0
LINE
  5
1648E
330
1E
100
AcDbEntity
  8
DETAIL
  6
CONTINUOUS
100
AcDbLine
 10
579.8808049579717
 20
-286.9417386338831
 30
0.0
 11
581.4048119741661
 21
-328.2066558421033
 31
0.0
  0
LINE
  5
1648F
330
1E
100
AcDbEntity
  8
DETAIL
  6
CONTINUOUS
100
AcDbLine
 10
581.4048119741661
 20
-328.2066558421033
 30
0.0
 11
584.9999999999949
 21
-359.0504194615308
 31
0.0
  0
LINE
  5
16490
330
1E
100
AcDbEntity
  8
DETAIL
  6
CONTINUOUS
100
AcDbLine
 10
579.1239371838789
 20
-365.0407822691581
 30
0.0
 11
573.5688654955722
 21
-334.7965076531021
 31
0.0
  0
LINE
  5
16491
330
1E
100
AcDbEntity
  8
DETAIL
  6
CONTINUOUS
100
AcDbLine
 10
573.5688654955722
 20
-334.7965076531021
 30
0.0
 11
569.4070220900709
 21
-300.3500155076858
 31
0.0
  0
LINE
  5
16492
330
1E
100
AcDbEntity
  8
DETAIL
  6
CONTINUOUS
100
AcDbLine
 10
-569.4070220900787
 20
-300.3500155076858
 30
0.0
 11
-573.5688654955769
 21
-334.7965076531021
 31
0.0
  0
LINE
  5
16493
330
1E
100
AcDbEntity
  8
DETAIL
  6
CONTINUOUS
100
AcDbLine
 10
-573.5688654955769
 20
-334.7965076531021
 30
0.0
 11
-579.1239371840942
 21
-365.040782269159
 31
0.0
  0
LINE
  5
16494
330
1E
100
AcDbEntity
  8
DETAIL
  6
CONTINUOUS
100
AcDbLine
 10
-585.0000000000049
 20
-359.0504194615018
 30
0.0
 11
-581.4048119747834
 21
-328.2066558546023
 31
0.0
  0
LINE
  5
16495
330
1E
100
AcDbEntity
  8
DETAIL
  6
CONTINUOUS
100
AcDbLine
 10
-581.4048119747834
 20
-328.2066558546023
 30
0.0
 11
-579.8809780490568
 21
-286.9410561818888
 31
0.0
  0
ARC
  5
16496
330
1E
100
AcDbEntity
  8
DETAIL
  6
CONTINUOUS
100
AcDbCircle
 10
-569.7965449098131
 20
-289.7479578935303
 30
0.0
 40
10.46778338325333
100
AcDbArc
 50
164.4459847794744
 51
272.133716060737
  0
ARC
  5
16497
330
1E
100
AcDbEntity
  8
DETAIL
  6
CONTINUOUS
100
AcDbCircle
 10
-573.9557579983495
 20
-327.302798455938
 30
0.0
 40
7.503689981665245
100
AcDbArc
 50
186.9183658854129
 51
272.9554980535941
  0
ARC
  5
16498
330
1E
100
AcDbEntity
  8
DETAIL
  6
CONTINUOUS
100
AcDbCircle
 10
573.9557580004627
 20
-327.3027984608093
 30
0.0
 40
7.503689976872476
100
AcDbArc
 50
267.0445019282719
 51
353.0816342434349
  0
LINE
  5
16499
330
1E
100
AcDbEntity
  8
DETAIL
  6
CONTINUOUS
100
AcDbLine
 10
-513.4971716889626
 20
-363.7504619779377
 30
0.0
 11
-514.6064129692835
 21
-309.2696826604001
 31
0.0
  0
LINE
  5
1649A
330
1E
100
AcDbEntity
  8
DETAIL
  6
CONTINUOUS
100
AcDbLine
 10
509.9916880187525
 20
-356.5955089793573
 30
0.0
 11
510.6630192444068
 21
-309.2696826604001
 31
0.0
  0
LINE
  5
1649C
330
1E
100
AcDbEntity
  8
DETAIL
  6
CONTINUOUS
100
AcDbLine
 10
347.2931083021454
 20
-309.2696826604001
 30
0.0
 11
346.5143808480103
 21
-363.7504619779941
 31
0.0
  0
ARC
  5
1649D
330
1E
100
AcDbEntity
  8
DETAIL
  6
CONTINUOUS
100
AcDbCircle
 10
328.1920025688163
 20
-357.4187138532475
 30
0.0
 40
2.983512911666716
100
AcDbArc
 50
279.2387133102639
 51
348.2807270627787
  0
ARC
  5
1649E
330
1E
100
AcDbEntity
  8
DETAIL
  6
CONTINUOUS
100
AcDbCircle
 10
328.1509975646609
 20
-357.4187137138491
 30
0.0
 40
2.983513070689288
100
AcDbArc
 50
191.7192750376535
 51
260.7612845906666
  0
ARC
  5
164A1
330
1E
100
AcDbEntity
  8
DETAIL
  6
CONTINUOUS
100
AcDbCircle
 10
328.2814515779506
 20
-357.5109017247754
 30
0.0
 40
3.885676933619391
100
AcDbArc
 50
268.3755832624826
 51
91.62441673751684
  0
ARC
  5
164A2
330
1E
100
AcDbEntity
  8
DETAIL
  6
CONTINUOUS
100
AcDbCircle
 10
328.0609395956131
 20
-357.5109017247746
 30
0.0
 40
3.885682965472726
100
AcDbArc
 50
88.37245000307076
 51
271.627549996929
  0
ARC
  5
164A3
330
1E
100
AcDbEntity
  8
DETAIL
  6
CONTINUOUS
100
AcDbCircle
 10
335.2997667170935
 20
-353.5758141924856
 30
0.0
 40
0.4960043781744866
100
AcDbArc
 50
359.1005155637552
 51
90.15656533988504
  0
LINE
  5
164A4
330
1E
100
AcDbEntity
  8
DETAIL
  6
CONTINUOUS
100
AcDbLine
 10
-75.80094020413287
 20
-364.3614504100674
 30
0.0
 11
-75.79229002547197
 21
-353.5836006280037
 31
0.0
  0
ARC
  5
164A5
330
1E
100
AcDbEntity
  8
DETAIL
  6
CONTINUOUS
100
AcDbCircle
 10
-76.28823328290251
 20
-353.5758141924856
 30
0.0
 40
0.4960043781744866
100
AcDbArc
 50
359.1005155637552
 51
90.15656533988504
  0
ARC
  5
164A6
330
1E
100
AcDbEntity
  8
DETAIL
  6
CONTINUOUS
100
AcDbCircle
 10
-83.41649999999697
 20
-358.7234913654451
 30
0.0
 40
5.945931723315752
100
AcDbArc
 50
71.65281701720397
 51
108.3471829828001
  0
LINE
  5
164A7
330
1E
100
AcDbEntity
  8
DETAIL
  6
CONTINUOUS
100
AcDbLine
 10
-76.28958865319453
 20
-353.0798116661421
 30
0.0
 11
-81.54487409987941
 21
-353.0798116661421
 31
0.0
  0
LINE
  5
164A8
330
1E
100
AcDbEntity
  8
DETAIL
  6
CONTINUOUS
100
AcDbLine
 10
-91.03206745082692
 20
-364.3605996343489
 30
0.0
 11
-91.04070997452016
 21
-353.5836006280037
 31
0.0
  0
LINE
  5
164A9
330
1E
100
AcDbEntity
  8
DETAIL
  6
CONTINUOUS
100
AcDbLine
 10
-85.28812590011455
 20
-353.0798116661431
 30
0.0
 11
-90.54341134679942
 21
-353.0798116661421
 31
0.0
  0
ARC
  5
164AA
330
1E
100
AcDbEntity
  8
DETAIL
  6
CONTINUOUS
100
AcDbCircle
 10
-90.53901945185442
 20
-353.5814874154679
 30
0.0
 40
0.5016949732673554
100
AcDbArc
 50
90.50158018700711
 51
180.2413389091314
  0
LINE
  5
164AB
330
1E
100
AcDbEntity
  8
DETAIL
  6
CONTINUOUS
100
AcDbLine
 10
-75.9239999999967
 20
-353.7102835040253
 30
0.0
 11
-75.9239999999967
 21
-364.3605950045333
 31
0.0
  0
LINE
  5
164AC
330
1E
100
AcDbEntity
  8
DETAIL
  6
CONTINUOUS
100
AcDbLine
 10
-90.90899999999544
 20
-353.7102835040253
 30
0.0
 11
-90.90899999999544
 21
-364.3605950045333
 31
0.0
  0
ARC
  5
164AD
330
1E
100
AcDbEntity
  8
DETAIL
  6
CONTINUOUS
100
AcDbCircle
 10
-90.40795059641039
 20
-353.7087292943201
 30
0.0
 40
0.5010518140872723
100
AcDbArc
 50
90.17717614253715
 51
180.1777257298578
  0
ARC
  5
164AE
330
1E
100
AcDbEntity
  8
DETAIL
  6
CONTINUOUS
100
AcDbCircle
 10
-76.42504940358357
 20
-353.7087292943191
 30
0.0
 40
0.5010518140870133
100
AcDbArc
 50
359.8222742700901
 51
89.82282385746286
  0
LINE
  5
164AF
330
1E
100
AcDbEntity
  8
DETAIL
  6
CONTINUOUS
100
AcDbLine
 10
-76.4235000000002
 20
-353.2076798758503
 30
0.0
 11
-90.4094999999919
 21
-353.2076798758503
 31
0.0
  0
ARC
  5
164B0
330
1E
100
AcDbEntity
  8
DETAIL
  6
CONTINUOUS
100
AcDbCircle
 10
-83.52706040438295
 20
-357.5109017247746
 30
0.0
 40
3.885682965472726
100
AcDbArc
 50
88.37245000307076
 51
271.627549996929
  0
ARC
  5
164B1
330
1E
100
AcDbEntity
  8
DETAIL
  6
CONTINUOUS
100
AcDbCircle
 10
-83.30654842204545
 20
-357.5109017247754
 30
0.0
 40
3.885676933619391
100
AcDbArc
 50
268.3755832624826
 51
91.62441673751684
  0
ARC
  5
164B2
330
1E
100
AcDbEntity
  8
DETAIL
  6
CONTINUOUS
100
AcDbCircle
 10
-83.43700243533509
 20
-357.4187137138491
 30
0.0
 40
2.983513070689288
100
AcDbArc
 50
191.7192750376535
 51
260.7612845906666
  0
ARC
  5
164B3
330
1E
100
AcDbEntity
  8
DETAIL
  6
CONTINUOUS
100
AcDbCircle
 10
-83.39599743117958
 20
-357.4187138532475
 30
0.0
 40
2.983512911666716
100
AcDbArc
 50
279.2387133102639
 51
348.2807270627787
  0
LINE
  5
164B4
330
1E
100
AcDbEntity
  8
DETAIL
  6
CONTINUOUS
100
AcDbLine
 10
-86.35832278859869
 20
-358.0247150641539
 30
0.0
 11
-84.41549999999493
 21
-358.0247150641539
 31
0.0
  0
LINE
  5
164B5
330
1E
100
AcDbEntity
  8
DETAIL
  6
CONTINUOUS
100
AcDbLine
 10
-84.41549999999493
 20
-355.0778324864263
 30
0.0
 11
-84.41549999999493
 21
-358.0247150641539
 31
0.0
  0
LINE
  5
164B6
330
1E
100
AcDbEntity
  8
DETAIL
  6
CONTINUOUS
100
AcDbLine
 10
-82.417499999999
 20
-355.0778324864263
 30
0.0
 11
-82.417499999999
 21
-358.0247150641539
 31
0.0
  0
SPLINE
  5
164B7
330
1E
100
AcDbEntity
  8
DETAIL
  6
CONTINUOUS
100
AcDbSpline
210
0.0
220
0.0
230
1.0
 70
     8
 71
     3
 72
     9
 73
     5
 74
     3
 42
0.0000000001
 43
0.0000000001
 44
0.00000001
 40
0.0
 40
0.0
 40
0.0
 40
0.0
 40
0.691683144982314
 40
1.381921949559514
 40
1.381921949559514
 40
1.381921949559514
 40
1.381921949559514
 10
-82.417499999999
 20
-355.0778324864263
 30
0.0
 10
-82.58400344726375
 20
-354.9183488415628
 30
0.0
 10
-82.91666267090336
 20
-354.5997145925801
 30
0.0
 10
-83.25000368480271
 20
-354.281793671893
 30
0.0
 10
-83.41649999999516
 20
-354.1229993591373
 30
0.0
 11
-82.417499999999
 21
-355.0778324864263
 31
0.0
 11
-82.91718115276614
 21
-354.5995602641179
 31
0.0
 11
-83.41649999999516
 21
-354.1229993591373
 31
0.0
  0
SPLINE
  5
164B8
330
1E
100
AcDbEntity
  8
DETAIL
  6
CONTINUOUS
100
AcDbSpline
210
0.0
220
0.0
230
1.0
 70
     8
 71
     3
 72
     9
 73
     5
 74
     3
 42
0.0000000001
 43
0.0000000001
 44
0.00000001
 40
0.0
 40
0.0
 40
0.0
 40
0.0
 40
0.6902388045772007
 40
1.381921949559504
 40
1.381921949559504
 40
1.381921949559504
 40
1.381921949559504
 10
-83.41649999999516
 20
-354.1229993591373
 30
0.0
 10
-83.58299631518759
 20
-354.2817936718928
 30
0.0
 10
-83.91633732908696
 20
-354.5997145925801
 30
0.0
 10
-84.24899655272655
 20
-354.9183488415629
 30
0.0
 10
-84.4154999999913
 20
-355.0778324864263
 30
0.0
 11
-83.41649999999516
 21
-354.1229993591373
 31
0.0
 11
-83.91581884722416
 21
-354.5995602641179
 31
0.0
 11
-84.4154999999913
 21
-355.0778324864263
 31
0.0
  0
LINE
  5
164B9
330
1E
100
AcDbEntity
  8
DETAIL
  6
CONTINUOUS
100
AcDbLine
 10
-82.417499999999
 20
-358.0247150641539
 30
0.0
 11
-80.47467721140618
 21
-358.0247150641584
 31
0.0
  0
LINE
  5
164BA
330
1E
100
AcDbEntity
  8
DETAIL
  6
CONTINUOUS
100
AcDbLine
 10
-83.91600000000051
 20
-359.4203276340763
 30
0.0
 11
-82.91699999999163
 21
-359.4203276340763
 31
0.0
  0
ARC
  5
164BB
330
1E
100
AcDbEntity
  8
DETAIL
  6
CONTINUOUS
100
AcDbCircle
 10
-83.41649999999697
 20
-357.3728870054914
 30
0.0
 40
3.032064296657771
100
AcDbArc
 50
260.5179126545465
 51
279.4820873454534
  0
LINE
  5
164BC
330
1E
100
AcDbEntity
  8
DETAIL
  6
CONTINUOUS
100
AcDbLine
 10
-83.91600000000051
 20
-359.4203276340763
 30
0.0
 11
-83.91600000000051
 21
-360.3635246714524
 31
0.0
  0
LINE
  5
164BD
330
1E
100
AcDbEntity
  8
DETAIL
  6
CONTINUOUS
100
AcDbLine
 10
-82.91699999999163
 20
-359.4203276340763
 30
0.0
 11
-82.91699999999163
 21
-360.3635246714524
 31
0.0
  0
LINE
  5
164BE
330
1E
100
AcDbEntity
  8
DETAIL
  6
CONTINUOUS
100
AcDbLine
 10
-75.80094020413287
 20
-364.3614504100674
 30
0.0
 11
-91.03206745082692
 21
-364.3605996343489
 31
0.0
  0
LINE
  5
164BF
330
1E
100
AcDbEntity
  8
DETAIL
  6
CONTINUOUS
100
AcDbLine
 10
-487.3889402041363
 20
-364.3614504100674
 30
0.0
 11
-487.3802900254752
 21
-353.5836006280037
 31
0.0
  0
ARC
  5
164C0
330
1E
100
AcDbEntity
  8
DETAIL
  6
CONTINUOUS
100
AcDbCircle
 10
-487.8762332829059
 20
-353.5758141924856
 30
0.0
 40
0.4960043781744866
100
AcDbArc
 50
359.1005155637552
 51
90.15656533988504
  0
ARC
  5
164C1
330
1E
100
AcDbEntity
  8
DETAIL
  6
CONTINUOUS
100
AcDbCircle
 10
-495.0045000000002
 20
-358.7234913654451
 30
0.0
 40
5.945931723315752
100
AcDbArc
 50
71.65281701720397
 51
108.3471829828001
  0
LINE
  5
164C2
330
1E
100
AcDbEntity
  8
DETAIL
  6
CONTINUOUS
100
AcDbLine
 10
-487.8775886531977
 20
-353.0798116661421
 30
0.0
 11
-493.1328740998828
 21
-353.0798116661421
 31
0.0
  0
LINE
  5
164C3
330
1E
100
AcDbEntity
  8
DETAIL
  6
CONTINUOUS
100
AcDbLine
 10
-502.6200674508303
 20
-364.3605996343489
 30
0.0
 11
-502.6287099745235
 21
-353.5836006280037
 31
0.0
  0
LINE
  5
164C4
330
1E
100
AcDbEntity
  8
DETAIL
  6
CONTINUOUS
100
AcDbLine
 10
-496.8761259001178
 20
-353.0798116661431
 30
0.0
 11
-502.1314113468029
 21
-353.0798116661421
 31
0.0
  0
ARC
  5
164C5
330
1E
100
AcDbEntity
  8
DETAIL
  6
CONTINUOUS
100
AcDbCircle
 10
-502.1270194518576
 20
-353.5814874154679
 30
0.0
 40
0.5016949732673554
100
AcDbArc
 50
90.50158018700711
 51
180.2413389091314
  0
LINE
  5
164C6
330
1E
100
AcDbEntity
  8
DETAIL
  6
CONTINUOUS
100
AcDbLine
 10
-487.5119999999998
 20
-353.7102835040253
 30
0.0
 11
-487.5119999999998
 21
-364.3605950045333
 31
0.0
  0
LINE
  5
164C7
330
1E
100
AcDbEntity
  8
DETAIL
  6
CONTINUOUS
100
AcDbLine
 10
-502.4969999999988
 20
-353.7102835040253
 30
0.0
 11
-502.4969999999988
 21
-364.3605950045333
 31
0.0
  0
ARC
  5
164C8
330
1E
100
AcDbEntity
  8
DETAIL
  6
CONTINUOUS
100
AcDbCircle
 10
-501.9959505964136
 20
-353.7087292943201
 30
0.0
 40
0.5010518140872723
100
AcDbArc
 50
90.17717614253715
 51
180.1777257298578
  0
ARC
  5
164C9
330
1E
100
AcDbEntity
  8
DETAIL
  6
CONTINUOUS
100
AcDbCircle
 10
-488.0130494035868
 20
-353.7087292943191
 30
0.0
 40
0.5010518140870133
100
AcDbArc
 50
359.8222742700901
 51
89.82282385746286
  0
LINE
  5
164CA
330
1E
100
AcDbEntity
  8
DETAIL
  6
CONTINUOUS
100
AcDbLine
 10
-488.0115000000036
 20
-353.2076798758503
 30
0.0
 11
-501.9974999999951
 21
-353.2076798758503
 31
0.0
  0
ARC
  5
164CB
330
1E
100
AcDbEntity
  8
DETAIL
  6
CONTINUOUS
100
AcDbCircle
 10
-495.1150604043863
 20
-357.5109017247746
 30
0.0
 40
3.885682965472726
100
AcDbArc
 50
88.37245000307076
 51
271.627549996929
  0
ARC
  5
164CC
330
1E
100
AcDbEntity
  8
DETAIL
  6
CONTINUOUS
100
AcDbCircle
 10
-494.8945484220486
 20
-357.5109017247754
 30
0.0
 40
3.885676933619391
100
AcDbArc
 50
268.3755832624826
 51
91.62441673751684
  0
ARC
  5
164CD
330
1E
100
AcDbEntity
  8
DETAIL
  6
CONTINUOUS
100
AcDbCircle
 10
-495.0250024353382
 20
-357.4187137138491
 30
0.0
 40
2.983513070689288
100
AcDbArc
 50
191.7192750376535
 51
260.7612845906666
  0
ARC
  5
164CE
330
1E
100
AcDbEntity
  8
DETAIL
  6
CONTINUOUS
100
AcDbCircle
 10
-494.9839974311827
 20
-357.4187138532475
 30
0.0
 40
2.983512911666716
100
AcDbArc
 50
279.2387133102639
 51
348.2807270627787
  0
LINE
  5
164CF
330
1E
100
AcDbEntity
  8
DETAIL
  6
CONTINUOUS
100
AcDbLine
 10
-497.9463227886021
 20
-358.0247150641539
 30
0.0
 11
-496.0034999999983
 21
-358.0247150641539
 31
0.0
  0
LINE
  5
164D0
330
1E
100
AcDbEntity
  8
DETAIL
  6
CONTINUOUS
100
AcDbLine
 10
-496.0034999999983
 20
-355.0778324864263
 30
0.0
 11
-496.0034999999983
 21
-358.0247150641539
 31
0.0
  0
LINE
  5
164D1
330
1E
100
AcDbEntity
  8
DETAIL
  6
CONTINUOUS
100
AcDbLine
 10
-494.0055000000024
 20
-355.0778324864263
 30
0.0
 11
-494.0055000000024
 21
-358.0247150641539
 31
0.0
  0
SPLINE
  5
164D2
330
1E
100
AcDbEntity
  8
DETAIL
  6
CONTINUOUS
100
AcDbSpline
210
0.0
220
0.0
230
1.0
 70
     8
 71
     3
 72
     9
 73
     5
 74
     3
 42
0.0000000001
 43
0.0000000001
 44
0.00000001
 40
0.0
 40
0.0
 40
0.0
 40
0.0
 40
0.6916831449822525
 40
1.381921949559473
 40
1.381921949559473
 40
1.381921949559473
 40
1.381921949559473
 10
-494.0055000000024
 20
-355.0778324864263
 30
0.0
 10
-494.1720034472671
 20
-354.9183488415629
 30
0.0
 10
-494.5046626709065
 20
-354.5997145925801
 30
0.0
 10
-494.838003684806
 20
-354.281793671893
 30
0.0
 10
-495.0044999999985
 20
-354.1229993591373
 30
0.0
 11
-494.0055000000024
 21
-355.0778324864263
 31
0.0
 11
-494.5051811527695
 21
-354.5995602641179
 31
0.0
 11
-495.0044999999985
 21
-354.1229993591373
 31
0.0
  0
SPLINE
  5
164D3
330
1E
100
AcDbEntity
  8
DETAIL
  6
CONTINUOUS
100
AcDbSpline
210
0.0
220
0.0
230
1.0
 70
     8
 71
     3
 72
     9
 73
     5
 74
     3
 42
0.0000000001
 43
0.0000000001
 44
0.00000001
 40
0.0
 40
0.0
 40
0.0
 40
0.0
 40
0.6902388045772212
 40
1.381921949559555
 40
1.381921949559555
 40
1.381921949559555
 40
1.381921949559555
 10
-495.0044999999985
 20
-354.1229993591373
 30
0.0
 10
-495.170996315191
 20
-354.281793671893
 30
0.0
 10
-495.5043373290902
 20
-354.5997145925801
 30
0.0
 10
-495.8369965527299
 20
-354.9183488415629
 30
0.0
 10
-496.0034999999947
 20
-355.0778324864263
 30
0.0
 11
-495.0044999999985
 21
-354.1229993591373
 31
0.0
 11
-495.5038188472275
 21
-354.5995602641179
 31
0.0
 11
-496.0034999999947
 21
-355.0778324864263
 31
0.0
  0
LINE
  5
164D4
330
1E
100
AcDbEntity
  8
DETAIL
  6
CONTINUOUS
100
AcDbLine
 10
-494.0055000000024
 20
-358.0247150641539
 30
0.0
 11
-492.0626772114095
 21
-358.0247150641584
 31
0.0
  0
LINE
  5
164D5
330
1E
100
AcDbEntity
  8
DETAIL
  6
CONTINUOUS
100
AcDbLine
 10
-495.5040000000038
 20
-359.4203276340763
 30
0.0
 11
-494.5049999999948
 21
-359.4203276340763
 31
0.0
  0
ARC
  5
164D6
330
1E
100
AcDbEntity
  8
DETAIL
  6
CONTINUOUS
100
AcDbCircle
 10
-495.0045000000002
 20
-357.3728870054914
 30
0.0
 40
3.032064296657771
100
AcDbArc
 50
260.5179126545465
 51
279.4820873454534
  0
LINE
  5
164D7
330
1E
100
AcDbEntity
  8
DETAIL
  6
CONTINUOUS
100
AcDbLine
 10
-495.5040000000038
 20
-359.4203276340763
 30
0.0
 11
-495.5040000000038
 21
-360.3635246714524
 31
0.0
  0
LINE
  5
164D8
330
1E
100
AcDbEntity
  8
DETAIL
  6
CONTINUOUS
100
AcDbLine
 10
-494.5049999999948
 20
-359.4203276340763
 30
0.0
 11
-494.5049999999948
 21
-360.3635246714524
 31
0.0
  0
LINE
  5
164D9
330
1E
100
AcDbEntity
  8
DETAIL
  6
CONTINUOUS
100
AcDbLine
 10
-487.3889402041363
 20
-364.3614504100674
 30
0.0
 11
-502.6200674508303
 21
-364.3605996343489
 31
0.0
  0
ARC
  5
164DA
330
1E
100
AcDbEntity
  8
DETAIL
  6
CONTINUOUS
100
AcDbCircle
 10
477.109945998926
 20
-330.6086278303031
 30
0.0
 40
1.35304860954856
100
AcDbArc
 50
260.4338952247418
 51
340.7593729679778
  0
LINE
  5
164DB
330
1E
100
AcDbEntity
  8
DETAIL
  6
CONTINUOUS
100
AcDbLine
 10
478.3874172932398
 20
-331.0545063249014
 30
0.0
 11
478.3866115205425
 21
-330.3611252451267
 31
0.0
  0
ARC
  5
164DC
330
1E
100
AcDbEntity
  8
DETAIL
  6
CONTINUOUS
100
AcDbCircle
 10
477.3181761042438
 20
-330.7025653631573
 30
0.0
 40
1.121666435706414
100
AcDbArc
 50
17.72233047376674
 51
52.82900545780012
  0
ARC
  5
164DD
330
1E
100
AcDbEntity
  8
DETAIL
  6
CONTINUOUS
100
AcDbCircle
 10
476.931235641287
 20
-331.6504736836026
 30
0.0
 40
2.127276022956584
100
AcDbArc
 50
59.96862693616535
 51
91.30488913548537
  0
ARC
  5
164DE
330
1E
100
AcDbEntity
  8
DETAIL
  6
CONTINUOUS
100
AcDbCircle
 10
471.5415889968268
 20
-330.608482149712
 30
0.0
 40
1.353177585964334
100
AcDbArc
 50
199.2450638212264
 51
279.5614544141644
  0
LINE
  5
164DF
330
1E
100
AcDbEntity
  8
DETAIL
  6
CONTINUOUS
100
AcDbLine
 10
470.2640304647708
 20
-331.0545020778858
 30
0.0
 11
470.2648354316012
 21
-330.3611252449831
 31
0.0
  0
ARC
  5
164E0
330
1E
100
AcDbEntity
  8
DETAIL
  6
CONTINUOUS
100
AcDbCircle
 10
471.0988928384563
 20
-330.5114831571913
 30
0.0
 40
0.8475017756243611
100
AcDbArc
 50
104.8678652863328
 51
169.780884036629
  0
ARC
  5
164E1
330
1E
100
AcDbEntity
  8
DETAIL
  6
CONTINUOUS
100
AcDbCircle
 10
471.7419021230166
 20
-331.8016052398646
 30
0.0
 40
2.278013009813848
100
AcDbArc
 50
89.32710543362333
 51
112.1930506236315
  0
LINE
  5
164E2
330
1E
100
AcDbEntity
  8
DETAIL
  6
CONTINUOUS
100
AcDbLine
 10
476.7974134568397
 20
-329.523749327695
 30
0.0
 11
476.7974134568397
 21
-331.9428616480738
 31
0.0
  0
LINE
  5
164E3
330
1E
100
AcDbEntity
  8
DETAIL
  6
CONTINUOUS
100
AcDbLine
 10
471.8546950421865
 20
-329.5237493278067
 30
0.0
 11
471.8546950421865
 21
-331.9428614066751
 31
0.0
  0
LINE
  5
164E4
330
1E
100
AcDbEntity
  8
DETAIL
  6
CONTINUOUS
100
AcDbLine
 10
485.3447650823223
 20
-329.5237493044556
 30
0.0
 11
485.3447650823223
 21
-331.9428613833247
 31
0.0
  0
LINE
  5
164E5
330
1E
100
AcDbEntity
  8
DETAIL
  6
CONTINUOUS
100
AcDbLine
 10
490.2874834969757
 20
-329.5237493043446
 30
0.0
 11
490.2874834969757
 21
-331.9428616247228
 31
0.0
  0
ARC
  5
164E6
330
1E
100
AcDbEntity
  8
DETAIL
  6
CONTINUOUS
100
AcDbCircle
 10
485.2319721631523
 20
-331.8016052165134
 30
0.0
 40
2.278013009813848
100
AcDbArc
 50
89.32710543362333
 51
112.1930506236315
  0
ARC
  5
164E7
330
1E
100
AcDbEntity
  8
DETAIL
  6
CONTINUOUS
100
AcDbCircle
 10
484.5889628785922
 20
-330.51148313384
 30
0.0
 40
0.8475017756243611
100
AcDbArc
 50
104.8678652863328
 51
169.780884036629
  0
LINE
  5
164E8
330
1E
100
AcDbEntity
  8
DETAIL
  6
CONTINUOUS
100
AcDbLine
 10
483.7541005049065
 20
-331.0545020545346
 30
0.0
 11
483.754905471737
 21
-330.3611252216319
 31
0.0
  0
ARC
  5
164E9
330
1E
100
AcDbEntity
  8
DETAIL
  6
CONTINUOUS
100
AcDbCircle
 10
485.0316590369626
 20
-330.6084821263616
 30
0.0
 40
1.353177585964334
100
AcDbArc
 50
199.2450638212264
 51
279.5614544141644
  0
ARC
  5
164EA
330
1E
100
AcDbEntity
  8
DETAIL
  6
CONTINUOUS
100
AcDbCircle
 10
490.4213056814229
 20
-331.6504736602514
 30
0.0
 40
2.127276022956584
100
AcDbArc
 50
59.96862693616535
 51
91.30488913548537
  0
ARC
  5
164EB
330
1E
100
AcDbEntity
  8
DETAIL
  6
CONTINUOUS
100
AcDbCircle
 10
490.8082461443796
 20
-330.7025653398063
 30
0.0
 40
1.121666435706414
100
AcDbArc
 50
17.72233047376674
 51
52.82900545780012
  0
LINE
  5
164EC
330
1E
100
AcDbEntity
  8
DETAIL
  6
CONTINUOUS
100
AcDbLine
 10
491.8774873333756
 20
-331.0545063015491
 30
0.0
 11
491.8766815606783
 21
-330.3611252217756
 31
0.0
  0
ARC
  5
164ED
330
1E
100
AcDbEntity
  8
DETAIL
  6
CONTINUOUS
100
AcDbCircle
 10
490.6000160390616
 20
-330.6086278069518
 30
0.0
 40
1.35304860954856
100
AcDbArc
 50
260.4338952247418
 51
340.7593729679778
  0
LINE
  5
164EE
330
1E
100
AcDbEntity
  8
DETAIL
  6
CONTINUOUS
100
AcDbLine
 10
490.3728619839045
 20
-329.5237493043428
 30
0.0
 11
485.2587250470921
 21
-329.5237493044573
 31
0.0
  0
LINE
  5
164EF
330
1E
100
AcDbEntity
  8
DETAIL
  6
CONTINUOUS
100
AcDbLine
 10
490.3751590892191
 20
-331.9428616290046
 30
0.0
 11
485.2564291178373
 21
-331.94286137901
 31
0.0
  0
ARC
  5
164F0
330
1E
100
AcDbEntity
  8
DETAIL
  6
CONTINUOUS
100
AcDbCircle
 10
492.1571888213916
 20
-342.2165326407962
 30
0.0
 40
1.705389372001235
100
AcDbArc
 50
261.191830525045
 51
327.7717431435878
  0
LINE
  5
164F1
330
1E
100
AcDbEntity
  8
DETAIL
  6
CONTINUOUS
100
AcDbLine
 10
493.5998292994542
 20
-343.1260057636503
 30
0.0
 11
493.5985275877015
 21
-335.3730626252659
 31
0.0
  0
ARC
  5
164F2
330
1E
100
AcDbEntity
  8
DETAIL
  6
CONTINUOUS
100
AcDbCircle
 10
492.7580049908176
 20
-335.5010162437979
 30
0.0
 40
0.8502060717079514
100
AcDbArc
 50
8.655740113393335
 51
74.75022587714001
  0
ARC
  5
164F3
330
1E
100
AcDbEntity
  8
DETAIL
  6
CONTINUOUS
100
AcDbCircle
 10
491.9404467859755
 20
-337.1412945597916
 30
0.0
 40
2.672159417781728
100
AcDbArc
 50
67.00197994186088
 51
90.98147548924364
  0
ARC
  5
164F4
330
1E
100
AcDbEntity
  8
DETAIL
  6
CONTINUOUS
100
AcDbCircle
 10
467.4889128513354
 20
-335.5009512575566
 30
0.0
 40
0.8501261581639308
100
AcDbArc
 50
105.2459189856497
 51
171.3479120239694
  0
ARC
  5
164F5
330
1E
100
AcDbEntity
  8
DETAIL
  6
CONTINUOUS
100
AcDbCircle
 10
468.3055566099906
 20
-337.1313194173767
 30
0.0
 40
2.662202792409478
100
AcDbArc
 50
88.99362164938585
 51
112.9997557365507
  0
LINE
  5
164F6
330
1E
100
AcDbEntity
  8
DETAIL
  6
CONTINUOUS
100
AcDbLine
 10
466.6484611042873
 20
-335.3730632374831
 30
0.0
 11
466.6471585958212
 21
-343.1260064817711
 31
0.0
  0
ARC
  5
164F7
330
1E
100
AcDbEntity
  8
DETAIL
  6
CONTINUOUS
100
AcDbCircle
 10
468.0898001576521
 20
-342.2165298009117
 30
0.0
 40
1.705392186204845
100
AcDbArc
 50
212.2283385562964
 51
278.8081257527373
  0
LINE
  5
164F8
330
1E
100
AcDbEntity
  8
DETAIL
  6
CONTINUOUS
100
AcDbLine
 10
468.3891803105693
 20
-334.4983446792797
 30
0.0
 11
468.3891803105693
 21
-343.9018097423843
 31
0.0
  0
LINE
  5
164F9
330
1E
100
AcDbEntity
  8
DETAIL
  6
CONTINUOUS
100
AcDbLine
 10
491.8583802496726
 20
-334.4695271866861
 30
0.0
 11
491.8583802496726
 21
-343.9018096024306
 31
0.0
  0
ARC
  5
164FA
330
1E
100
AcDbEntity
  8
DETAIL
  6
CONTINUOUS
100
AcDbCircle
 10
569.2885214650747
 20
-278.9560494910068
 30
0.0
 40
10.62633913677796
100
AcDbArc
 50
271.9339859839113
 51
4.588364437048454
  0
ARC
  5
164FB
330
1E
100
AcDbEntity
  8
DETAIL
  6
CONTINUOUS
100
AcDbCircle
 10
-569.2883934943467
 20
-278.9557495706872
 30
0.0
 40
10.62664320566659
100
AcDbArc
 50
175.4111070084799
 51
268.0653790014138
  0
ARC
  5
164FC
330
1E
100
AcDbEntity
  8
DETAIL
  6
CONTINUOUS
100
AcDbCircle
 10
569.036883297426
 20
-276.9773510902854
 30
0.0
 40
10.14398336137374
100
AcDbArc
 50
271.2687894678889
 51
0.1210927238314843
  0
ARC
  5
164FD
330
1E
100
AcDbEntity
  8
DETAIL
  6
CONTINUOUS
100
AcDbCircle
 10
569.2086102523667
 20
-39.59751410032413
 30
0.0
 40
9.972234454204873
100
AcDbArc
 50
0.0222057287345816
 51
90.15666097900332
  0
ARC
  5
164FE
330
1E
100
AcDbEntity
  8
DETAIL
  6
CONTINUOUS
100
AcDbCircle
 10
569.2590832700922
 20
-39.59689258457592
 30
0.0
 40
8.973228681148457
100
AcDbArc
 50
0.0207670234584773
 51
90.1829382090372
  0
ARC
  5
164FF
330
1E
100
AcDbEntity
  8
DETAIL
  6
CONTINUOUS
100
AcDbCircle
 10
569.2393907687915
 20
-277.0436807374554
 30
0.0
 40
8.993353199625293
100
AcDbArc
 50
289.8671323592592
 51
0.5591741166620784
  0
ARC
  5
16500
330
1E
100
AcDbEntity
  8
DETAIL
  6
CONTINUOUS
100
AcDbCircle
 10
-569.0787317738917
 20
-276.9904747716158
 30
0.0
 40
10.10217135478709
100
AcDbArc
 50
179.8039731349314
 51
268.9880815133578
  0
ARC
  5
16501
330
1E
100
AcDbEntity
  8
DETAIL
  6
CONTINUOUS
100
AcDbCircle
 10
-569.2541668723801
 20
-277.0503987519863
 30
0.0
 40
8.978645985027521
100
AcDbArc
 50
179.3970377916146
 51
253.1125855014807
  0
ARC
  5
16502
330
1E
100
AcDbEntity
  8
DETAIL
  6
CONTINUOUS
100
AcDbCircle
 10
-569.2587197202803
 20
-39.59725861444574
 30
0.0
 40
8.973592371072546
100
AcDbArc
 50
89.81939183975184
 51
179.9768967426964
  0
ARC
  5
16503
330
1E
100
AcDbEntity
  8
DETAIL
  6
CONTINUOUS
100
AcDbCircle
 10
-569.2086038934498
 20
-39.59752421223538
 30
0.0
 40
9.972240817053537
100
AcDbArc
 50
89.84337625793848
 51
179.977736187269
  0
LINE
  5
16504
330
1E
100
AcDbEntity
  8
DETAIL
  6
CONTINUOUS
100
AcDbLine
 10
537.8733792745555
 20
-0.0032968805539895
 30
0.0
 11
537.8733792745555
 21
-24.06033932042601
 31
0.0
  0
LINE
  5
16505
330
1E
100
AcDbEntity
  8
DETAIL
  6
CONTINUOUS
100
AcDbLine
 10
373.695627644604
 20
1.022112560489857
 30
0.0
 11
373.695627644604
 21
-24.06033938017253
 31
0.0
  0
LINE
  5
16506
330
1E
100
AcDbEntity
  8
DETAIL
  6
CONTINUOUS
100
AcDbLine
 10
258.8330494641236
 20
0.0000000000068212
 30
0.0
 11
258.8330494641236
 21
-30.01486524981055
 31
0.0
  0
LINE
  5
16507
330
1E
100
AcDbEntity
  8
DETAIL
  6
CONTINUOUS
100
AcDbLine
 10
145.4812937193568
 20
0.4307782598884843
 30
0.0
 11
145.4812937193568
 21
-30.08424329182571
 31
0.0
  0
LINE
  5
16508
330
1E
100
AcDbEntity
  8
DETAIL
  6
CONTINUOUS
100
AcDbLine
 10
32.15867457932893
 20
0.0000000000068212
 30
0.0
 11
32.15867457932893
 21
-30.11254649766896
 31
0.0
  0
LINE
  5
16509
330
1E
100
AcDbEntity
  8
DETAIL
  6
CONTINUOUS
100
AcDbLine
 10
-82.45425986173485
 20
-24.29080212580947
 30
0.0
 11
-82.41750010897282
 21
0.0000000000068212
 31
0.0
  0
LINE
  5
1650A
330
1E
100
AcDbEntity
  8
DETAIL
  6
CONTINUOUS
100
AcDbLine
 10
-196.9903126071252
 20
0.0000000000068212
 30
0.0
 11
-196.9953762566013
 21
-30.05808927737189
 31
0.0
  0
LINE
  5
1650B
330
1E
100
AcDbEntity
  8
DETAIL
  6
CONTINUOUS
100
AcDbLine
 10
-310.3590860800661
 20
-29.96719409638945
 30
0.0
 11
-310.3590860800661
 21
-0.0000000000004547
 31
0.0
  0
LINE
  5
1650C
330
1E
100
AcDbEntity
  8
DETAIL
  6
CONTINUOUS
100
AcDbLine
 10
-423.6856704184114
 20
-29.83282070949872
 30
0.0
 11
-423.6856704184114
 21
0.0000000000068212
 31
0.0
  0
LINE
  5
1650D
330
1E
100
AcDbEntity
  8
DETAIL
  6
CONTINUOUS
100
AcDbLine
 10
-537.8732753296128
 20
-0.0032628787653266
 30
0.0
 11
-537.8732753296128
 21
-24.06033971189799
 31
0.0
  0
LINE
  5
1650E
330
1E
100
AcDbEntity
  8
DETAIL
  6
CONTINUOUS
100
AcDbLine
 10
-537.8732753296128
 20
-0.6321509151744067
 30
0.0
 11
537.8733792745555
 21
-0.6321509151744067
 31
0.0
  0
LINE
  5
1650F
330
1E
100
AcDbEntity
  8
DETAIL
  6
CONTINUOUS
100
AcDbLine
 10
-537.8732753296128
 20
-2.540731027649143
 30
0.0
 11
537.8733792745555
 21
-2.540731027649143
 31
0.0
  0
LINE
  5
16510
330
1E
100
AcDbEntity
  8
DETAIL
  6
CONTINUOUS
100
AcDbLine
 10
-537.8732753296128
 20
-5.172858697058018
 30
0.0
 11
537.8733792745555
 21
-5.172858697058924
 31
0.0
  0
LINE
  5
16511
330
1E
100
AcDbEntity
  8
DETAIL
  6
CONTINUOUS
100
AcDbLine
 10
-537.8732753296128
 20
-8.651310049776384
 30
0.0
 11
537.8733792745555
 21
-8.651310049777293
 31
0.0
  0
LINE
  5
16512
330
1E
100
AcDbEntity
  8
DETAIL
  6
CONTINUOUS
100
AcDbLine
 10
-537.8732753296128
 20
-13.8489635446981
 30
0.0
 11
537.8733792745555
 21
-13.84896354469901
 31
0.0
  0
LINE
  5
177BF
330
1E
100
AcDbEntity
  8
NOTE
  6
CONTINUOUS
 62
     4
100
AcDbLine
 10
-530.4999999999994
 20
-318.0000000000004
 30
0.0
 11
-816.9255208919306
 21
-39.71791361790065
 31
0.0
  0
LINE
  5
177C3
330
1E
100
AcDbEntity
  8
NOTE
  6
CONTINUOUS
 62
     4
100
AcDbLine
 10
-530.4999999999994
 20
-318.0000000000004
 30
0.0
 11
-551.2516227134576
 21
-283.8039476942572
 31
0.0
  0
LINE
  5
177C9
330
1E
100
AcDbEntity
  8
NOTE
  6
CONTINUOUS
 62
     4
100
AcDbLine
 10
-565.569462945104
 20
-298.7611551717068
 30
0.0
 11
-530.4999999999994
 21
-318.0000000000004
 31
0.0
  0
LINE
  5
177CA
330
1E
100
AcDbEntity
  8
NOTE
  6
DASHDOT
 62
     4
100
AcDbLine
 10
-510.4999999999994
 20
-318.0000000000004
 30
0.0
 11
-550.4999999999994
 21
-318.0000000000004
 31
0.0
  0
LINE
  5
177CB
330
1E
100
AcDbEntity
  8
NOTE
  6
DASHDOT
 62
     4
100
AcDbLine
 10
-530.4999999999994
 20
-298.0000000000003
 30
0.0
 11
-530.4999999999994
 21
-338.0000000000003
 31
0.0
  0
TEXT
  5
177CD
330
1E
100
AcDbEntity
  8
NOTE
 62
     4
100
AcDbText
 10
-1527.182639448199
 20
-16.1869936179014
 30
0.0
 40
64.0
  1
D,RL,RG%%C75～%%C80
 41
0.9
100
AcDbText
  0
LINE
  5
177CE
330
1E
100
AcDbEntity
  8
NOTE
  6
CONTINUOUS
 62
     4
100
AcDbLine
 10
-1559.482504224191
 20
-39.71791361790065
 30
0.0
 11
-816.9255208919306
 21
-39.71791361790065
 31
0.0
  0
LINE
  5
177D0
330
1E
100
AcDbEntity
  8
NOTE
  6
CONTINUOUS
 62
     4
100
AcDbLine
 10
449.2000000000013
 20
-317.9999999999993
 30
0.0
 11
721.8993488373747
 21
-57.268863868881
 31
0.0
  0
LINE
  5
177D2
330
1E
100
AcDbEntity
  8
BASIS
  6
DASHDOT
 62
     6
100
AcDbLine
 10
-0.0000000000030695
 20
51.79273000000057
 30
0.0
 11
-0.0000000000030695
 21
-333.9052583812538
 31
0.0
  0
LINE
  5
177D9
330
1E
100
AcDbEntity
  8
NOTE
  6
CONTINUOUS
 62
     4
100
AcDbLine
 10
449.2000000000013
 20
-317.9999999999993
 30
0.0
 11
470.2249640392223
 21
-283.9713249495612
 31
0.0
  0
LINE
  5
177DE
330
1E
100
AcDbEntity
  8
NOTE
  6
CONTINUOUS
 62
     4
100
AcDbLine
 10
484.42249489884
 20
-299.0427788247718
 30
0.0
 11
449.2000000000013
 21
-317.9999999999993
 31
0.0
  0
LINE
  5
177DF
330
1E
100
AcDbEntity
  8
NOTE
  6
DASHDOT
 62
     4
100
AcDbLine
 10
469.2000000000013
 20
-317.9999999999993
 30
0.0
 11
429.2000000000013
 21
-317.9999999999993
 31
0.0
  0
LINE
  5
177E0
330
1E
100
AcDbEntity
  8
NOTE
  6
DASHDOT
 62
     4
100
AcDbLine
 10
449.2000000000013
 20
-297.9999999999995
 30
0.0
 11
449.2000000000013
 21
-337.9999999999995
 31
0.0
  0
TEXT
  5
177E4
330
1E
100
AcDbEntity
  8
NOTE
 62
     4
100
AcDbText
 10
771.0056561976695
 20
-30.51800386888089
 30
0.0
 40
64.0
  1
D,RL,RG%%C75～%%C80
 41
0.9
100
AcDbText
  0
LINE
  5
177E7
330
1E
100
AcDbEntity
  8
NOTE
  6
CONTINUOUS
 62
     4
100
AcDbLine
 10
721.8993488373747
 20
-57.268863868881
 30
0.0
 11
1497.176579104149
 21
-57.268863868881
 31
0.0
  0
POINT
  5
177E8
330
1E
100
AcDbEntity
  8
ARRANGE
 62
     1
100
AcDbPoint
 10
-0.0000000000030695
 20
0.0000000000004547
 30
0.0
  0
CIRCLE
  5
177E9
330
1E
100
AcDbEntity
  8
ARRANGE
  6
CONTINUOUS
100
AcDbCircle
 10
-0.0000000000030695
 20
0.0000000000004547
 30
0.0
 40
40.0
  0
POINT
  5
177EA
330
1E
100
AcDbEntity
  8
ARRANGE
  6
CONTINUOUS
100
AcDbPoint
 10
-0.0000000000030695
 20
0.0000000000004547
 30
0.0
  0
TEXT
  5
1810C
330
1E
100
AcDbEntity
  8
ETC
100
AcDbText
 10
-923.5323234100695
 20
221.2942830234172
 30
0.0
 40
64.0
  1
PKFY-P63VKM_2
 41
0.7551957866624514
 72
     5
 11
-302.1140760992523
 21
221.2942830234172
 31
0.0
100
AcDbText
  0
LINE
  5
181E2
330
1E
100
AcDbEntity
  8
SIZE
  6
CONTINUOUS
100
AcDbLine
 10
-0.0000000000121657
 20
-417.0562047240314
 30
0.0
 11
-0.0000000000121709
 21
-502.128971868384
 31
0.0
  0
LINE
  5
181E3
330
1E
100
AcDbEntity
  8
SIZE
  6
CONTINUOUS
100
AcDbLine
 10
-530.4999999999994
 20
-358.0
 30
0.0
 11
-530.4999999999994
 21
-502.128971868384
 31
0.0
  0
LINE
  5
181E4
330
1E
100
AcDbEntity
  8
SIZE
  6
CONTINUOUS
100
AcDbLine
 10
-10.00000000001217
 20
-482.1289718683841
 30
0.0
 11
-520.4999999999994
 21
-482.1289718683841
 31
0.0
  0
LINE
  5
181E8
330
1E
100
AcDbEntity
  8
SIZE
  6
CONTINUOUS
100
AcDbLine
 10
584.9999999999949
 20
-379.0504194615061
 30
0.0
 11
584.9999999999949
 21
-654.3700531114667
 31
0.0
  0
LINE
  5
181E9
330
1E
100
AcDbEntity
  8
SIZE
  6
CONTINUOUS
100
AcDbLine
 10
-585.0000000000049
 20
-379.0504194614973
 30
0.0
 11
-585.0000000000049
 21
-654.3700531114667
 31
0.0
  0
LINE
  5
181EA
330
1E
100
AcDbEntity
  8
SIZE
  6
CONTINUOUS
100
AcDbLine
 10
574.9999999999951
 20
-634.3700531114667
 30
0.0
 11
-575.0000000000047
 21
-634.3700531114667
 31
0.0
  0
LINE
  5
181EE
330
1E
100
AcDbEntity
  8
SIZE
  6
CONTINUOUS
100
AcDbLine
 10
-598.9416251271299
 20
-0.0000000028503507
 30
0.0
 11
-787.2663445687607
 21
-0.0000000028502974
 31
0.0
  0
LINE
  5
181EF
330
1E
100
AcDbEntity
  8
SIZE
  6
CONTINUOUS
100
AcDbLine
 10
-599.123937184056
 20
-365.0407822691586
 30
0.0
 11
-787.2663445687607
 21
-365.0407822691584
 31
0.0
  0
LINE
  5
181F0
330
1E
100
AcDbEntity
  8
SIZE
  6
CONTINUOUS
100
AcDbLine
 10
-767.2663445687605
 20
-10.0000000028503
 30
0.0
 11
-767.2663445687606
 21
-355.0407822691584
 31
0.0
  0
LINE
  5
181F4
330
1E
100
AcDbEntity
  8
SIZE
  6
CONTINUOUS
100
AcDbLine
 10
-530.4999999999994
 20
-358.0
 30
0.0
 11
-530.4999999999994
 21
-502.128971868384
 31
0.0
  0
LINE
  5
181F5
330
1E
100
AcDbEntity
  8
SIZE
  6
CONTINUOUS
100
AcDbLine
 10
-585.0000000000049
 20
-379.0504194615184
 30
0.0
 11
-585.0000000000049
 21
-502.128971868384
 31
0.0
  0
LINE
  5
181F6
330
1E
100
AcDbEntity
  8
SIZE
  6
CONTINUOUS
100
AcDbLine
 10
-520.4999999999994
 20
-482.1289718683841
 30
0.0
 11
-510.4999999999994
 21
-482.1289718683841
 31
0.0
  0
LINE
  5
181F7
330
1E
100
AcDbEntity
  8
SIZE
  6
CONTINUOUS
100
AcDbLine
 10
-595.0000000000049
 20
-482.1289718683841
 30
0.0
 11
-762.1428571428621
 21
-482.1289718683841
 31
0.0
  0
LINE
  5
181F8
330
1E
100
AcDbEntity
  8
SIZE
  6
CONTINUOUS
100
AcDbLine
 10
-530.4999999999994
 20
-482.1289718683841
 30
0.0
 11
-585.0000000000049
 21
-482.1289718683841
 31
0.0
  0
LINE
  5
181FC
330
1E
100
AcDbEntity
  8
SIZE
  6
CONTINUOUS
100
AcDbLine
 10
-599.123937184056
 20
-365.0407822691586
 30
0.0
 11
-687.3168904303778
 21
-365.0407822691584
 31
0.0
  0
LINE
  5
181FD
330
1E
100
AcDbEntity
  8
SIZE
  6
CONTINUOUS
100
AcDbLine
 10
-570.4999999999994
 20
-318.0
 30
0.0
 11
-687.3168904303778
 21
-317.9999999999998
 31
0.0
  0
LINE
  5
181FE
330
1E
100
AcDbEntity
  8
SIZE
  6
CONTINUOUS
100
AcDbLine
 10
-667.3168904303777
 20
-375.0407822691584
 30
0.0
 11
-667.3168904303777
 21
-385.0407822691583
 31
0.0
  0
LINE
  5
181FF
330
1E
100
AcDbEntity
  8
SIZE
  6
CONTINUOUS
100
AcDbLine
 10
-667.3168904303777
 20
-307.9999999999998
 30
0.0
 11
-667.3168904303777
 21
-205.142857142857
 31
0.0
  0
LINE
  5
18200
330
1E
100
AcDbEntity
  8
SIZE
  6
CONTINUOUS
100
AcDbLine
 10
-667.3168904303777
 20
-365.0407822691584
 30
0.0
 11
-667.3168904303777
 21
-317.9999999999998
 31
0.0
  0
LINE
  5
18204
330
1E
100
AcDbEntity
  8
SIZE
  6
CONTINUOUS
100
AcDbLine
 10
-0.0000000000121657
 20
-417.0562047240314
 30
0.0
 11
-0.0000000000121709
 21
-502.128971868384
 31
0.0
  0
LINE
  5
18205
330
1E
100
AcDbEntity
  8
SIZE
  6
CONTINUOUS
100
AcDbLine
 10
449.2000000000013
 20
-357.9999999999993
 30
0.0
 11
449.2000000000013
 21
-502.128971868384
 31
0.0
  0
LINE
  5
18206
330
1E
100
AcDbEntity
  8
SIZE
  6
CONTINUOUS
100
AcDbLine
 10
9.99999999998783
 20
-482.1289718683841
 30
0.0
 11
439.2000000000012
 21
-482.1289718683841
 31
0.0
  0
LINE
  5
1820A
330
1E
100
AcDbEntity
  8
SIZE
  6
CONTINUOUS
100
AcDbLine
 10
449.2000000000013
 20
-357.9999999999993
 30
0.0
 11
449.2000000000013
 21
-502.128971868384
 31
0.0
  0
LINE
  5
1820B
330
1E
100
AcDbEntity
  8
SIZE
  6
CONTINUOUS
100
AcDbLine
 10
584.9999999999949
 20
-379.0504194615061
 30
0.0
 11
584.9999999999949
 21
-502.128971868384
 31
0.0
  0
LINE
  5
1820C
330
1E
100
AcDbEntity
  8
SIZE
  6
CONTINUOUS
100
AcDbLine
 10
439.2000000000012
 20
-482.1289718683841
 30
0.0
 11
429.2000000000013
 21
-482.1289718683841
 31
0.0
  0
LINE
  5
1820D
330
1E
100
AcDbEntity
  8
SIZE
  6
CONTINUOUS
100
AcDbLine
 10
594.9999999999951
 20
-482.1289718683841
 30
0.0
 11
796.4285714285664
 21
-482.1289718683841
 31
0.0
  0
LINE
  5
1820E
330
1E
100
AcDbEntity
  8
SIZE
  6
CONTINUOUS
100
AcDbLine
 10
449.2000000000013
 20
-482.1289718683841
 30
0.0
 11
584.9999999999949
 21
-482.1289718683841
 31
0.0
  0
LINE
  5
18212
330
1E
100
AcDbEntity
  8
SIZE
  6
CONTINUOUS
100
AcDbLine
 10
489.2000000000012
 20
-317.9999999999993
 30
0.0
 11
733.3457009250601
 21
-317.9999999999996
 31
0.0
  0
LINE
  5
18213
330
1E
100
AcDbEntity
  8
SIZE
  6
CONTINUOUS
100
AcDbLine
 10
599.1239371838387
 20
-365.0407822691586
 30
0.0
 11
733.3457009250601
 21
-365.0407822691586
 31
0.0
  0
LINE
  5
18214
330
1E
100
AcDbEntity
  8
SIZE
  6
CONTINUOUS
100
AcDbLine
 10
713.3457009250601
 20
-375.0407822691586
 30
0.0
 11
713.3457009250601
 21
-385.0407822691586
 31
0.0
  0
LINE
  5
18215
330
1E
100
AcDbEntity
  8
SIZE
  6
CONTINUOUS
100
AcDbLine
 10
713.3457009250601
 20
-307.9999999999996
 30
0.0
 11
713.3457009250601
 21
-205.1428571428551
 31
0.0
  0
LINE
  5
18216
330
1E
100
AcDbEntity
  8
SIZE
  6
CONTINUOUS
100
AcDbLine
 10
713.3457009250601
 20
-365.0407822691586
 30
0.0
 11
713.3457009250601
 21
-317.9999999999996
 31
0.0
  0
TEXT
  5
1821A
330
1E
100
AcDbEntity
  8
SIZE
  6
CONTINUOUS
100
AcDbText
 10
-752.1428571428619
 20
-472.128971868384
 30
0.0
 40
50.0
  1
54.5
 41
0.9
100
AcDbText
  0
CIRCLE
  5
1821B
330
1E
100
AcDbEntity
  8
SIZE
  6
BYBLOCK
100
AcDbCircle
 10
-585.0000000000049
 20
-634.3700531114667
 30
0.0
 40
5.0
  0
LINE
  5
1821C
330
1E
100
AcDbEntity
  8
SIZE
  6
BYBLOCK
100
AcDbLine
 10
-585.0000000000049
 20
-634.3700531114667
 30
0.0
 11
-575.0000000000047
 21
-634.3700531114667
 31
0.0
  0
CIRCLE
  5
1821D
330
1E
100
AcDbEntity
  8
SIZE
  6
BYBLOCK
100
AcDbCircle
 10
-585.0000000000049
 20
-482.1289718683841
 30
0.0
 40
5.0
  0
LINE
  5
1821E
330
1E
100
AcDbEntity
  8
SIZE
  6
BYBLOCK
100
AcDbLine
 10
-585.0000000000049
 20
-482.1289718683841
 30
0.0
 11
-595.0000000000049
 21
-482.1289718683841
 31
0.0
  0
CIRCLE
  5
1821F
330
1E
100
AcDbEntity
  8
SIZE
  6
BYBLOCK
100
AcDbCircle
 10
-530.4999999999994
 20
-482.1289718683841
 30
0.0
 40
5.0
  0
LINE
  5
18220
330
1E
100
AcDbEntity
  8
SIZE
  6
BYBLOCK
100
AcDbLine
 10
-530.4999999999994
 20
-482.1289718683841
 30
0.0
 11
-520.4999999999994
 21
-482.1289718683841
 31
0.0
  0
CIRCLE
  5
18221
330
1E
100
AcDbEntity
  8
SIZE
  6
BYBLOCK
100
AcDbCircle
 10
-530.4999999999994
 20
-482.1289718683841
 30
0.0
 40
5.0
  0
LINE
  5
18222
330
1E
100
AcDbEntity
  8
SIZE
  6
BYBLOCK
100
AcDbLine
 10
-530.4999999999994
 20
-482.1289718683841
 30
0.0
 11
-520.4999999999994
 21
-482.1289718683841
 31
0.0
  0
TEXT
  5
18223
330
1E
100
AcDbEntity
  8
SIZE
  6
CONTINUOUS
100
AcDbText
 10
-677.3168904303777
 20
-288.0
 30
0.0
 40
50.0
  1
47
 50
90.0
 41
0.9
100
AcDbText
  0
CIRCLE
  5
18224
330
1E
100
AcDbEntity
  8
SIZE
  6
BYBLOCK
100
AcDbCircle
 10
-767.2663445687606
 20
-365.0407822691584
 30
0.0
 40
5.0
  0
LINE
  5
18225
330
1E
100
AcDbEntity
  8
SIZE
  6
BYBLOCK
100
AcDbLine
 10
-767.2663445687606
 20
-365.0407822691584
 30
0.0
 11
-767.2663445687606
 21
-355.0407822691584
 31
0.0
  0
TEXT
  5
18226
330
1E
100
AcDbEntity
  8
SIZE
  6
CONTINUOUS
100
AcDbText
 10
-777.2663445687607
 20
-240.3775339931474
 30
0.0
 40
50.0
  1
365
 50
90.0
 41
0.9
100
AcDbText
  0
CIRCLE
  5
18227
330
1E
100
AcDbEntity
  8
SIZE
  6
BYBLOCK
100
AcDbCircle
 10
-667.3168904303777
 20
-317.9999999999998
 30
0.0
 40
5.0
  0
LINE
  5
18228
330
1E
100
AcDbEntity
  8
SIZE
  6
BYBLOCK
100
AcDbLine
 10
-667.3168904303777
 20
-317.9999999999998
 30
0.0
 11
-667.3168904303777
 21
-307.9999999999998
 31
0.0
  0
CIRCLE
  5
18229
330
1E
100
AcDbEntity
  8
SIZE
  6
BYBLOCK
100
AcDbCircle
 10
-667.3168904303777
 20
-365.0407822691584
 30
0.0
 40
5.0
  0
LINE
  5
1822A
330
1E
100
AcDbEntity
  8
SIZE
  6
BYBLOCK
100
AcDbLine
 10
-667.3168904303777
 20
-365.0407822691584
 30
0.0
 11
-667.3168904303777
 21
-375.0407822691584
 31
0.0
  0
CIRCLE
  5
1822B
330
1E
100
AcDbEntity
  8
SIZE
  6
BYBLOCK
100
AcDbCircle
 10
-767.2663445687605
 20
-0.000000002850303
 30
0.0
 40
5.0
  0
LINE
  5
1822C
330
1E
100
AcDbEntity
  8
SIZE
  6
BYBLOCK
100
AcDbLine
 10
-767.2663445687605
 20
-0.000000002850303
 30
0.0
 11
-767.2663445687605
 21
-10.0000000028503
 31
0.0
  0
TEXT
  5
1822D
330
1E
100
AcDbEntity
  8
SIZE
  6
CONTINUOUS
100
AcDbText
 10
134.5999999999945
 20
-472.128971868384
 30
0.0
 40
50.0
  1
449.2
 41
0.9
100
AcDbText
  0
TEXT
  5
1822E
330
1E
100
AcDbEntity
  8
SIZE
  6
CONTINUOUS
100
AcDbText
 10
-355.2500000000057
 20
-472.128971868384
 30
0.0
 40
50.0
  1
530.5
 41
0.9
100
AcDbText
  0
TEXT
  5
1822F
330
1E
100
AcDbEntity
  8
SIZE
  6
CONTINUOUS
100
AcDbText
 10
-70.71428571429059
 20
-624.3700531114669
 30
0.0
 40
50.0
  1
1170
 41
0.9
100
AcDbText
  0
CIRCLE
  5
18230
330
1E
100
AcDbEntity
  8
SIZE
  6
BYBLOCK
100
AcDbCircle
 10
-0.0000000000121697
 20
-482.1289718683841
 30
0.0
 40
5.0
  0
LINE
  5
18231
330
1E
100
AcDbEntity
  8
SIZE
  6
BYBLOCK
100
AcDbLine
 10
-0.0000000000121697
 20
-482.1289718683841
 30
0.0
 11
9.99999999998783
 21
-482.1289718683841
 31
0.0
  0
CIRCLE
  5
18232
330
1E
100
AcDbEntity
  8
SIZE
  6
BYBLOCK
100
AcDbCircle
 10
-0.0000000000121697
 20
-482.1289718683841
 30
0.0
 40
5.0
  0
LINE
  5
18233
330
1E
100
AcDbEntity
  8
SIZE
  6
BYBLOCK
100
AcDbLine
 10
-0.0000000000121697
 20
-482.1289718683841
 30
0.0
 11
-10.00000000001217
 21
-482.1289718683841
 31
0.0
  0
TEXT
  5
18234
330
1E
100
AcDbEntity
  8
SIZE
  6
CONTINUOUS
100
AcDbText
 10
614.9999999999947
 20
-472.128971868384
 30
0.0
 40
50.0
  1
135.8
 41
0.9
100
AcDbText
  0
CIRCLE
  5
18235
330
1E
100
AcDbEntity
  8
SIZE
  6
BYBLOCK
100
AcDbCircle
 10
449.2000000000013
 20
-482.1289718683841
 30
0.0
 40
5.0
  0
LINE
  5
18236
330
1E
100
AcDbEntity
  8
SIZE
  6
BYBLOCK
100
AcDbLine
 10
449.2000000000013
 20
-482.1289718683841
 30
0.0
 11
439.2000000000012
 21
-482.1289718683841
 31
0.0
  0
CIRCLE
  5
18237
330
1E
100
AcDbEntity
  8
SIZE
  6
BYBLOCK
100
AcDbCircle
 10
449.2000000000013
 20
-482.1289718683841
 30
0.0
 40
5.0
  0
LINE
  5
18238
330
1E
100
AcDbEntity
  8
SIZE
  6
BYBLOCK
100
AcDbLine
 10
449.2000000000013
 20
-482.1289718683841
 30
0.0
 11
439.2000000000012
 21
-482.1289718683841
 31
0.0
  0
CIRCLE
  5
18239
330
1E
100
AcDbEntity
  8
SIZE
  6
BYBLOCK
100
AcDbCircle
 10
584.9999999999949
 20
-634.3700531114667
 30
0.0
 40
5.0
  0
LINE
  5
1823A
330
1E
100
AcDbEntity
  8
SIZE
  6
BYBLOCK
100
AcDbLine
 10
584.9999999999949
 20
-634.3700531114667
 30
0.0
 11
574.9999999999951
 21
-634.3700531114667
 31
0.0
  0
CIRCLE
  5
1823B
330
1E
100
AcDbEntity
  8
SIZE
  6
BYBLOCK
100
AcDbCircle
 10
584.9999999999949
 20
-482.1289718683841
 30
0.0
 40
5.0
  0
LINE
  5
1823C
330
1E
100
AcDbEntity
  8
SIZE
  6
BYBLOCK
100
AcDbLine
 10
584.9999999999949
 20
-482.1289718683841
 30
0.0
 11
594.9999999999951
 21
-482.1289718683841
 31
0.0
  0
TEXT
  5
1823D
330
1E
100
AcDbEntity
  8
SIZE
  6
CONTINUOUS
100
AcDbText
 10
703.3457009250603
 20
-287.999999999998
 30
0.0
 40
50.0
  1
47
 50
90.0
 41
0.9
100
AcDbText
  0
CIRCLE
  5
1823E
330
1E
100
AcDbEntity
  8
SIZE
  6
BYBLOCK
100
AcDbCircle
 10
713.3457009250601
 20
-317.9999999999996
 30
0.0
 40
5.0
  0
LINE
  5
1823F
330
1E
100
AcDbEntity
  8
SIZE
  6
BYBLOCK
100
AcDbLine
 10
713.3457009250601
 20
-317.9999999999996
 30
0.0
 11
713.3457009250601
 21
-307.9999999999996
 31
0.0
  0
CIRCLE
  5
18240
330
1E
100
AcDbEntity
  8
SIZE
  6
BYBLOCK
100
AcDbCircle
 10
713.3457009250601
 20
-365.0407822691586
 30
0.0
 40
5.0
  0
LINE
  5
18241
330
1E
100
AcDbEntity
  8
SIZE
  6
BYBLOCK
100
AcDbLine
 10
713.3457009250601
 20
-365.0407822691586
 30
0.0
 11
713.3457009250601
 21
-375.0407822691586
 31
0.0
  0
LINE
  5
18244
330
1E
100
AcDbEntity
  8
OUTLINE
  6
CONTINUOUS
100
AcDbLine
 10
579.1156248841382
 20
0.0000000000004547
 30
0.0
 11
-579.1156248841465
 21
-0.0000000000004547
 31
0.0
  0
LINE
  5
1825E
330
1E
100
AcDbEntity
  8
OUTLINE
  6
CONTINUOUS
100
AcDbLine
 10
348.2410030327341
 20
-365.5640603536762
 30
0.0
 11
-513.0860483777462
 21
-365.5640603536762
 31
0.0
  0
LINE
  5
18262
330
1E
100
AcDbEntity
  8
OUTLINE
  6
CONTINUOUS
100
AcDbLine
 10
-585.0000000000049
 20
-359.0504194615027
 30
0.0
 11
-585.0000000000029
 21
-5.994364575403324
 31
0.0
  0
LINE
  5
18266
330
1E
100
AcDbEntity
  8
OUTLINE
  6
CONTINUOUS
100
AcDbLine
 10
-527.374120397078
 20
-365.0407822691581
 30
0.0
 11
-579.123937184056
 21
-365.0407822691581
 31
0.0
  0
ARC
  5
1826B
330
1E
100
AcDbEntity
  8
OUTLINE
  6
CONTINUOUS
100
AcDbCircle
 10
-579.2029301795677
 20
-359.2411147525076
 30
0.0
 40
5.800205444381687
100
AcDbArc
 50
178.1159280010898
 51
270.780335320741
  0
LINE
  5
1827E
330
1E
100
AcDbEntity
  8
OUTLINE
  6
CONTINUOUS
100
AcDbLine
 10
-513.0860483777462
 20
-365.5640603536762
 30
0.0
 11
-527.374120397074
 21
-365.0407822691581
 31
0.0
  0
ARC
  5
18295
330
1E
100
AcDbEntity
  8
OUTLINE
  6
CONTINUOUS
100
AcDbCircle
 10
-579.1973769735334
 20
-5.805132167939972
 30
0.0
 40
5.805707785565044
100
AcDbArc
 50
89.19317253462908
 51
181.8678409896705
  0
LINE
  5
1829A
330
1E
100
AcDbEntity
  8
OUTLINE
  6
CONTINUOUS
100
AcDbLine
 10
584.9999999999949
 20
-359.0504194615063
 30
0.0
 11
584.9999999999965
 21
-5.994364575402412
 31
0.0
  0
LINE
  5
182D8
330
1E
100
AcDbEntity
  8
OUTLINE
  6
CONTINUOUS
100
AcDbLine
 10
579.1239371838787
 20
-365.0407822691581
 30
0.0
 11
362.5291173567025
 21
-365.0407822691581
 31
0.0
  0
LINE
  5
182DC
330
1E
100
AcDbEntity
  8
OUTLINE
  6
CONTINUOUS
100
AcDbLine
 10
348.2410030327341
 20
-365.5640603536762
 30
0.0
 11
362.5291173567061
 21
-365.0407822691581
 31
0.0
  0
ARC
  5
1830A
330
1E
100
AcDbEntity
  8
OUTLINE
  6
CONTINUOUS
100
AcDbCircle
 10
579.202930179556
 20
-359.2411147525093
 30
0.0
 40
5.800205444382592
100
AcDbArc
 50
269.2196646774799
 51
1.884071998893643
  0
ARC
  5
18315
330
1E
100
AcDbEntity
  8
OUTLINE
  6
CONTINUOUS
100
AcDbCircle
 10
579.1973769735217
 20
-5.805132167943611
 30
0.0
 40
5.805707785568477
100
AcDbArc
 50
358.1321590103671
 51
90.8068274653347
  0
ENDSEC
  0
SECTION
  2
OBJECTS
  0
DICTIONARY
  5
C
330
0
100
AcDbDictionary
  3
ACAD_GROUP
350
D
  3
ACAD_LAYOUT
350
19
  3
ACAD_MLINESTYLE
350
16
  3
ACAD_PLOTSETTINGS
350
18
  3
ACAD_PLOTSTYLENAME
350
E
  3
ACDBHEADERROUNDTRIPXREC
350
183BE
  0
DICTIONARY
  5
18341
330
1E
100
AcDbDictionary
280
     1
  3
ACAD_LAYOUTSELFREF
360
183E0
  0
DICTIONARY
  5
1833F
330
1A
100
AcDbDictionary
280
     1
  3
ACAD_LAYOUTSELFREF
360
183DF
  0
DICTIONARY
  5
D
102
{ACAD_REACTORS
330
C
102
}
330
C
100
AcDbDictionary
  0
DICTIONARY
  5
19
102
{ACAD_REACTORS
330
C
102
}
330
C
100
AcDbDictionary
  0
DICTIONARY
  5
16
102
{ACAD_REACTORS
330
C
102
}
330
C
100
AcDbDictionary
  3
STANDARD
350
17
  0
DICTIONARY
  5
18
102
{ACAD_REACTORS
330
C
102
}
330
C
100
AcDbDictionary
  0
ACDBDICTIONARYWDFLT
  5
E
102
{ACAD_REACTORS
330
C
102
}
330
C
100
AcDbDictionary
281
     1
  3
Normal
350
F
100
AcDbDictionaryWithDefault
340
F
  0
DICTIONARY
  5
183BE
102
{ACAD_REACTORS
330
C
102
}
330
C
100
AcDbDictionary
  3
CEPSNTYPE
350
183C8
  3
DIMSTYLEDATA
350
183CC
  3
FINGERPRINTGUID
350
183C9
  3
HYPERLINKBASE
350
183C1
  3
INSUNITS
350
183C7
  3
LAYOUTDICT
350
183C3
  3
LWETCUNION
350
183C6
  3
PLOTSETDICT
350
183C4
  3
PLOTSTYLNAMDICT
350
183C5
  3
PSVPSCALE
350
183CB
  3
PUCSBASE
350
183CF
  3
PUCSORGBACK
350
183D5
  3
PUCSORGBOTTOM
350
183D1
  3
PUCSORGFRONT
350
183D4
  3
PUCSORGLEFT
350
183D2
  3
PUCSORGRIGHT
350
183D3
  3
PUCSORGTOP
350
183D0
  3
PUCSORTHOREF
350
183CD
  3
PUCSORTHOVIEW
350
183CE
  3
STYLESHEET
350
183C2
  3
TSTACKALIGN
350
183BF
  3
TSTACKSIZE
350
183C0
  3
UCSBASE
350
183D8
  3
UCSORGBACK
350
183DE
  3
UCSORGBOTTOM
350
183DA
  3
UCSORGFRONT
350
183DD
  3
UCSORGLEFT
350
183DB
  3
UCSORGRIGHT
350
183DC
  3
UCSORGTOP
350
183D9
  3
UCSORTHOREF
350
183D6
  3
UCSORTHOVIEW
350
183D7
  3
VERSIONGUID
350
183CA
  0
XRECORD
  5
183E0
102
{ACAD_REACTORS
330
18341
102
}
330
18341
100
AcDbXrecord
340
1E
  0
XRECORD
  5
183DF
102
{ACAD_REACTORS
330
1833F
102
}
330
1833F
100
AcDbXrecord
340
1A
  0
MLINESTYLE
  5
17
102
{ACAD_REACTORS
330
16
102
}
330
16
100
AcDbMlineStyle
  2
STANDARD
 70
     0
  3

 62
   256
 51
90.0
 52
90.0
 71
     2
 49
0.5
 62
   256
  6
BYLAYER
 49
-0.5
 62
   256
  6
BYLAYER
  0
ACDBPLACEHOLDER
  5
F
102
{ACAD_REACTORS
330
E
102
}
330
E
100
AcDbPlaceHolder
280
     0
  0
XRECORD
  5
183C8
102
{ACAD_REACTORS
330
183BE
102
}
330
183BE
100
AcDbXrecord
 90
        0
  0
XRECORD
  5
183CC
102
{ACAD_REACTORS
330
183BE
102
}
330
183BE
100
AcDbXrecord
1000
DSTYLE
1002
{
1070
   341
340
46
1070
   342
340
46
1002
}
  0
XRECORD
  5
183C9
102
{ACAD_REACTORS
330
183BE
102
}
330
183BE
100
AcDbXrecord
  1
{97DA8DB6-C4F0-4C3D-ABEB-53C4FBBC7EFF}
  0
XRECORD
  5
183C1
102
{ACAD_REACTORS
330
183BE
102
}
330
183BE
100
AcDbXrecord
  1

  0
XRECORD
  5
183C7
102
{ACAD_REACTORS
330
183BE
102
}
330
183BE
100
AcDbXrecord
 90
        0
  0
XRECORD
  5
183C3
102
{ACAD_REACTORS
330
183BE
102
}
330
183BE
100
AcDbXrecord
340
19
  0
XRECORD
  5
183C6
102
{ACAD_REACTORS
330
183BE
102
}
330
183BE
100
AcDbXrecord
 90
    10781
  0
XRECORD
  5
183C4
102
{ACAD_REACTORS
330
183BE
102
}
330
183BE
100
AcDbXrecord
340
18
  0
XRECORD
  5
183C5
102
{ACAD_REACTORS
330
183BE
102
}
330
183BE
100
AcDbXrecord
340
E
  0
XRECORD
  5
183CB
102
{ACAD_REACTORS
330
183BE
102
}
330
183BE
100
AcDbXrecord
 40
0.0
  0
XRECORD
  5
183CF
102
{ACAD_REACTORS
330
183BE
102
}
330
183BE
100
AcDbXrecord
340
0
  0
XRECORD
  5
183D5
102
{ACAD_REACTORS
330
183BE
102
}
330
183BE
100
AcDbXrecord
 10
0.0
 20
0.0
 30
0.0
  0
XRECORD
  5
183D1
102
{ACAD_REACTORS
330
183BE
102
}
330
183BE
100
AcDbXrecord
 10
0.0
 20
0.0
 30
0.0
  0
XRECORD
  5
183D4
102
{ACAD_REACTORS
330
183BE
102
}
330
183BE
100
AcDbXrecord
 10
0.0
 20
0.0
 30
0.0
  0
XRECORD
  5
183D2
102
{ACAD_REACTORS
330
183BE
102
}
330
183BE
100
AcDbXrecord
 10
0.0
 20
0.0
 30
0.0
  0
XRECORD
  5
183D3
102
{ACAD_REACTORS
330
183BE
102
}
330
183BE
100
AcDbXrecord
 10
0.0
 20
0.0
 30
0.0
  0
XRECORD
  5
183D0
102
{ACAD_REACTORS
330
183BE
102
}
330
183BE
100
AcDbXrecord
 10
0.0
 20
0.0
 30
0.0
  0
XRECORD
  5
183CD
102
{ACAD_REACTORS
330
183BE
102
}
330
183BE
100
AcDbXrecord
340
0
  0
XRECORD
  5
183CE
102
{ACAD_REACTORS
330
183BE
102
}
330
183BE
100
AcDbXrecord
 70
     0
  0
XRECORD
  5
183C2
102
{ACAD_REACTORS
330
183BE
102
}
330
183BE
100
AcDbXrecord
  1
u.ctb
  0
XRECORD
  5
183BF
102
{ACAD_REACTORS
330
183BE
102
}
330
183BE
100
AcDbXrecord
 90
        1
  0
XRECORD
  5
183C0
102
{ACAD_REACTORS
330
183BE
102
}
330
183BE
100
AcDbXrecord
 90
       70
  0
XRECORD
  5
183D8
102
{ACAD_REACTORS
330
183BE
102
}
330
183BE
100
AcDbXrecord
340
0
  0
XRECORD
  5
183DE
102
{ACAD_REACTORS
330
183BE
102
}
330
183BE
100
AcDbXrecord
 10
0.0
 20
0.0
 30
0.0
  0
XRECORD
  5
183DA
102
{ACAD_REACTORS
330
183BE
102
}
330
183BE
100
AcDbXrecord
 10
0.0
 20
0.0
 30
0.0
  0
XRECORD
  5
183DD
102
{ACAD_REACTORS
330
183BE
102
}
330
183BE
100
AcDbXrecord
 10
0.0
 20
0.0
 30
0.0
  0
XRECORD
  5
183DB
102
{ACAD_REACTORS
330
183BE
102
}
330
183BE
100
AcDbXrecord
 10
0.0
 20
0.0
 30
0.0
  0
XRECORD
  5
183DC
102
{ACAD_REACTORS
330
183BE
102
}
330
183BE
100
AcDbXrecord
 10
0.0
 20
0.0
 30
0.0
  0
XRECORD
  5
183D9
102
{ACAD_REACTORS
330
183BE
102
}
330
183BE
100
AcDbXrecord
 10
0.0
 20
0.0
 30
0.0
  0
XRECORD
  5
183D6
102
{ACAD_REACTORS
330
183BE
102
}
330
183BE
100
AcDbXrecord
340
0
  0
XRECORD
  5
183D7
102
{ACAD_REACTORS
330
183BE
102
}
330
183BE
100
AcDbXrecord
 70
     0
  0
XRECORD
  5
183CA
102
{ACAD_REACTORS
330
183BE
102
}
330
183BE
100
AcDbXrecord
  1
{2EEE039C-71F4-4F3E-B501-320EE8A6CEEE}
  0
ENDSEC
  0
EOF
