  0
SECTION
  2
HEADER
  9
$ACADVER
  1
AC1014
  9
$ACADMAINTVER
 70
     9
  9
$DWGCODEPAGE
  3
ANSI_932
  9
$INSBASE
 10
0.0
 20
0.0
 30
0.0
  9
$EXTMIN
 10
-1333.084361591025
 20
-482.9307606898336
 30
0.0
  9
$EXTMAX
 10
1445.479181782236
 20
553.9096523294833
 30
0.0
  9
$LIMMIN
 10
-3424.718897474421
 20
-241.2751718400066
  9
$LIMMAX
 10
5483.332090746102
 20
4682.367238430699
  9
$ORTHOMODE
 70
     0
  9
$REGENMODE
 70
     1
  9
$FILLMODE
 70
     1
  9
$QTEXTMODE
 70
     0
  9
$MIRRTEXT
 70
     0
  9
$DRAGMODE
 70
     2
  9
$LTSCALE
 40
20.0
  9
$OSMODE
 70
    37
  9
$ATTMODE
 70
     1
  9
$TEXTSIZE
 40
64.0
  9
$TRACEWID
 40
0.05
  9
$TEXTSTYLE
  7
STANDARD
  9
$CLAYER
  8
OUTLINE
  9
$CELTYPE
  6
CONTINUOUS
  9
$CECOLOR
 62
   256
  9
$CELTSCALE
 40
1.0
  9
$DELOBJ
 70
     1
  9
$DISPSILH
 70
     0
  9
$DIMSCALE
 40
1.0
  9
$DIMASZ
 40
10.0
  9
$DIMEXO
 40
20.0
  9
$DIMDLI
 40
200.0
  9
$DIMRND
 40
0.0
  9
$DIMDLE
 40
0.0
  9
$DIMEXE
 40
20.0
  9
$DIMTP
 40
0.0
  9
$DIMTM
 40
0.0
  9
$DIMTXT
 40
50.0
  9
$DIMCEN
 40
0.082
  9
$DIMTSZ
 40
0.0
  9
$DIMTOL
 70
     0
  9
$DIMLIM
 70
     0
  9
$DIMTIH
 70
     0
  9
$DIMTOH
 70
     0
  9
$DIMSE1
 70
     0
  9
$DIMSE2
 70
     0
  9
$DIMTAD
 70
     1
  9
$DIMZIN
 70
     8
  9
$DIMBLK
  1
ORIGIN
  9
$DIMASO
 70
     1
  9
$DIMSHO
 70
     0
  9
$DIMPOST
  1

  9
$DIMAPOST
  1

  9
$DIMALT
 70
     0
  9
$DIMALTD
 70
     2
  9
$DIMALTF
 40
25.4
  9
$DIMLFAC
 40
1.0
  9
$DIMTOFL
 70
     1
  9
$DIMTVP
 40
0.0
  9
$DIMTIX
 70
     0
  9
$DIMSOXD
 70
     0
  9
$DIMSAH
 70
     0
  9
$DIMBLK1
  1

  9
$DIMBLK2
  1

  9
$DIMSTYLE
  2
STANDARD
  9
$DIMCLRD
 70
     0
  9
$DIMCLRE
 70
     0
  9
$DIMCLRT
 70
     0
  9
$DIMTFAC
 40
1.0
  9
$DIMGAP
 40
10.0
  9
$DIMJUST
 70
     0
  9
$DIMSD1
 70
     0
  9
$DIMSD2
 70
     0
  9
$DIMTOLJ
 70
     1
  9
$DIMTZIN
 70
     0
  9
$DIMALTZ
 70
     0
  9
$DIMALTTZ
 70
     0
  9
$DIMFIT
 70
     3
  9
$DIMUPT
 70
     0
  9
$DIMUNIT
 70
     2
  9
$DIMDEC
 70
     1
  9
$DIMTDEC
 70
     1
  9
$DIMALTU
 70
     2
  9
$DIMALTTD
 70
     2
  9
$DIMTXSTY
  7
STANDARD
  9
$DIMAUNIT
 70
     0
  9
$LUNITS
 70
     2
  9
$LUPREC
 70
     4
  9
$SKETCHINC
 40
0.1
  9
$FILLETRAD
 40
5.0
  9
$AUNITS
 70
     1
  9
$AUPREC
 70
     3
  9
$MENU
  1
ACAD
  9
$ELEVATION
 40
0.0
  9
$PELEVATION
 40
0.0
  9
$THICKNESS
 40
0.0
  9
$LIMCHECK
 70
     0
  9
$BLIPMODE
 70
     0
  9
$CHAMFERA
 40
0.0
  9
$CHAMFERB
 40
0.0
  9
$CHAMFERC
 40
0.0
  9
$CHAMFERD
 40
0.0
  9
$SKPOLY
 70
     0
  9
$TDCREATE
 40
2450330.393205995
  9
$TDUPDATE
 40
2454720.365069178
  9
$TDINDWG
 40
1.0000072338
  9
$TDUSRTIMER
 40
1.0000068750
  9
$USRTIMER
 70
     1
  9
$ANGBASE
 50
0.0
  9
$ANGDIR
 70
     0
  9
$PDMODE
 70
     3
  9
$PDSIZE
 40
-2.0
  9
$PLINEWID
 40
0.0
  9
$COORDS
 70
     0
  9
$SPLFRAME
 70
     0
  9
$SPLINETYPE
 70
     6
  9
$SPLINESEGS
 70
     8
  9
$ATTDIA
 70
     0
  9
$ATTREQ
 70
     1
  9
$HANDLING
 70
-16383
  9
$HANDSEED
  5
1831B
  9
$SURFTAB1
 70
     6
  9
$SURFTAB2
 70
     6
  9
$SURFTYPE
 70
     6
  9
$SURFU
 70
     6
  9
$SURFV
 70
     6
  9
$UCSNAME
  2

  9
$UCSORG
 10
0.0
 20
0.0
 30
0.0
  9
$UCSXDIR
 10
1.0
 20
0.0
 30
0.0
  9
$UCSYDIR
 10
0.0
 20
1.0
 30
0.0
  9
$PUCSNAME
  2

  9
$PUCSORG
 10
0.0
 20
0.0
 30
0.0
  9
$PUCSXDIR
 10
1.0
 20
0.0
 30
0.0
  9
$PUCSYDIR
 10
0.0
 20
1.0
 30
0.0
  9
$USERI1
 70
     0
  9
$USERI2
 70
     0
  9
$USERI3
 70
     0
  9
$USERI4
 70
     0
  9
$USERI5
 70
     0
  9
$USERR1
 40
20.0
  9
$USERR2
 40
0.0
  9
$USERR3
 40
0.0
  9
$USERR4
 40
0.0
  9
$USERR5
 40
0.0
  9
$WORLDVIEW
 70
     1
  9
$SHADEDGE
 70
     3
  9
$SHADEDIF
 70
    70
  9
$TILEMODE
 70
     1
  9
$MAXACTVP
 70
    64
  9
$PINSBASE
 10
0.0
 20
0.0
 30
0.0
  9
$PLIMCHECK
 70
     0
  9
$PEXTMIN
 10
1.000000000000000E+20
 20
1.000000000000000E+20
 30
1.000000000000000E+20
  9
$PEXTMAX
 10
-1.000000000000000E+20
 20
-1.000000000000000E+20
 30
-1.000000000000000E+20
  9
$PLIMMIN
 10
0.0
 20
0.0
  9
$PLIMMAX
 10
12.0
 20
9.0
  9
$UNITMODE
 70
     0
  9
$VISRETAIN
 70
     1
  9
$PLINEGEN
 70
     0
  9
$PSLTSCALE
 70
     1
  9
$TREEDEPTH
 70
  3020
  9
$PICKSTYLE
 70
     1
  9
$CMLSTYLE
  2
STANDARD
  9
$CMLJUST
 70
     0
  9
$CMLSCALE
 40
1.0
  9
$PROXYGRAPHICS
 70
     1
  9
$MEASUREMENT
 70
     0
  0
ENDSEC
  0
SECTION
  2
CLASSES
  0
CLASS
  1
ACDBDICTIONARYWDFLT
  2
AcDbDictionaryWithDefault
  3
AutoCAD 2000
 90
        0
280
     0
281
     0
  0
CLASS
  1
ACDBPLACEHOLDER
  2
AcDbPlaceHolder
  3
AutoCAD 2000
 90
        0
280
     0
281
     0
  0
CLASS
  1
LAYOUT
  2
AcDbLayout
  3
AutoCAD 2000
 90
        0
280
     0
281
     0
  0
CLASS
  1
LONG_TRANSACTION
  2
AcDbLongTransaction
  3
AutoCAD 2000
 90
        0
280
     0
281
     0
  0
CLASS
  1
LWPOLYLINE
  2
AcDbPolyline
  3
AutoCAD 2000
 90
        0
280
     0
281
     1
  0
CLASS
  1
HATCH
  2
AcDbHatch
  3
AutoCAD 2000
 90
        0
280
     0
281
     1
  0
CLASS
  1
XRECORD
  2
AcDbXrecord
  3
AutoCAD 2000
 90
        0
280
     0
281
     0
  0
CLASS
  1
LONG_TRANSACTION
  2
AcDbLongTransaction
  3
AutoCAD 2000
 90
        0
280
     0
281
     0
  0
CLASS
  1
LWPOLYLINE
  2
AcDbPolyline
  3
AutoCAD 2000
 90
        0
280
     0
281
     1
  0
CLASS
  1
HATCH
  2
AcDbHatch
  3
AutoCAD 2000
 90
        0
280
     0
281
     1
  0
CLASS
  1
XRECORD
  2
AcDbXrecord
  3
AutoCAD 2000
 90
        0
280
     0
281
     0
  0
CLASS
  1
LONG_TRANSACTION
  2
AcDbLongTransaction
  3
AutoCAD 2000
 90
        0
280
     0
281
     0
  0
CLASS
  1
LWPOLYLINE
  2
AcDbPolyline
  3
AutoCAD 2000
 90
        0
280
     0
281
     1
  0
CLASS
  1
HATCH
  2
AcDbHatch
  3
AutoCAD 2000
 90
        0
280
     0
281
     1
  0
CLASS
  1
XRECORD
  2
AcDbXrecord
  3
AutoCAD 2000
 90
        0
280
     0
281
     0
  0
ENDSEC
  0
SECTION
  2
TABLES
  0
TABLE
  2
VPORT
  5
8
330
0
100
AcDbSymbolTable
 70
     2
  0
VPORT
  5
182F7
330
8
100
AcDbSymbolTableRecord
100
AcDbViewportTableRecord
  2
*ACTIVE
 70
     0
 10
0.0
 20
0.0
 11
1.0
 21
1.0
 12
56.41576315266729
 22
35.38036430686406
 13
0.0
 23
0.0
 14
50.0
 24
50.0
 15
100.0
 25
100.0
 16
0.0
 26
0.0
 36
1.0
 17
0.0
 27
0.0
 37
0.0
 40
1432.057959240624
 41
1.947815533980582
 42
50.0
 43
0.0
 44
0.0
 50
0.0
 51
0.0
 71
     0
 72
   500
 73
     1
 74
     0
 75
     0
 76
     0
 77
     0
 78
     0
  0
ENDTAB
  0
TABLE
  2
LTYPE
  5
5
330
0
100
AcDbSymbolTable
 70
    16
  0
LTYPE
  5
13
330
5
100
AcDbSymbolTableRecord
100
AcDbLinetypeTableRecord
  2
BYBLOCK
 70
     0
  3

 72
    65
 73
     0
 40
0.0
  0
LTYPE
  5
14
330
5
100
AcDbSymbolTableRecord
100
AcDbLinetypeTableRecord
  2
BYLAYER
 70
     0
  3

 72
    65
 73
     0
 40
0.0
  0
LTYPE
  5
15
330
5
100
AcDbSymbolTableRecord
100
AcDbLinetypeTableRecord
  2
CONTINUOUS
 70
     0
  3
実線
 72
    65
 73
     0
 40
0.0
  0
LTYPE
  5
23
330
5
100
AcDbSymbolTableRecord
100
AcDbLinetypeTableRecord
  2
DASHDOT
 70
     0
  3
____ _ ____ _ ____ _ ____ _ ____ _ ____ _ ____
 72
    65
 73
     4
 40
5.5
 49
4.0
 74
     0
 49
-0.6
 74
     0
 49
0.3
 74
     0
 49
-0.6
 74
     0
  0
ENDTAB
  0
TABLE
  2
LAYER
  5
2
330
0
100
AcDbSymbolTable
 70
    15
  0
LAYER
  5
10
330
2
100
AcDbSymbolTableRecord
100
AcDbLayerTableRecord
  2
0
 70
     0
 62
     7
  6
CONTINUOUS
  0
LAYER
  5
22
330
2
100
AcDbSymbolTableRecord
100
AcDbLayerTableRecord
  2
SIZE
 70
     0
 62
    30
  6
CONTINUOUS
  0
LAYER
  5
31
330
2
100
AcDbSymbolTableRecord
100
AcDbLayerTableRecord
  2
DETAIL
 70
     0
 62
     5
  6
CONTINUOUS
  0
LAYER
  5
32
330
2
100
AcDbSymbolTableRecord
100
AcDbLayerTableRecord
  2
OUTLINE
 70
     0
 62
     3
  6
CONTINUOUS
  0
LAYER
  5
33
330
2
100
AcDbSymbolTableRecord
100
AcDbLayerTableRecord
  2
BASIS
 70
     0
 62
     6
  6
DASHDOT
  0
LAYER
  5
34
330
2
100
AcDbSymbolTableRecord
100
AcDbLayerTableRecord
  2
NOTE
 70
     0
 62
     4
  6
CONTINUOUS
  0
LAYER
  5
35
330
2
100
AcDbSymbolTableRecord
100
AcDbLayerTableRecord
  2
ARRANGE
 70
     0
 62
     1
  6
CONTINUOUS
  0
LAYER
  5
37
330
2
100
AcDbSymbolTableRecord
100
AcDbLayerTableRecord
  2
ETC
 70
     0
 62
    61
  6
CONTINUOUS
  0
LAYER
  5
3A
330
2
100
AcDbSymbolTableRecord
100
AcDbLayerTableRecord
  2
DEFPOINTS
 70
     0
 62
     7
  6
CONTINUOUS
  0
LAYER
  5
182E8
330
2
100
AcDbSymbolTableRecord
100
AcDbLayerTableRecord
  2
FIX
 70
     0
 62
    11
  6
CONTINUOUS
  0
LAYER
  5
182E9
330
2
100
AcDbSymbolTableRecord
100
AcDbLayerTableRecord
  2
SERVICESPACE
 70
     0
 62
     2
  6
DASHDOT
  0
LAYER
  5
182EA
330
2
100
AcDbSymbolTableRecord
100
AcDbLayerTableRecord
  2
SYMBOLLINE
 70
     0
 62
    15
  6
CONTINUOUS
  0
ENDTAB
  0
TABLE
  2
STYLE
  5
3
330
0
100
AcDbSymbolTable
 70
     2
  0
STYLE
  5
11
330
3
100
AcDbSymbolTableRecord
100
AcDbTextStyleTableRecord
  2
STANDARD
 70
     0
 40
0.0
 41
0.9
 50
0.0
 71
     0
 42
64.0
  3
SIMPLEX
  4
BIGFONT
  0
ENDTAB
  0
TABLE
  2
VIEW
  5
6
330
0
100
AcDbSymbolTable
 70
     1
  0
VIEW
  5
3C
330
6
100
AcDbSymbolTableRecord
100
AcDbViewTableRecord
  2
ALL
 70
     0
 40
4282.62
 10
0.0
 20
41.30990399999999
 41
5940.0
 11
0.0
 21
0.0
 31
1.0
 12
0.0
 22
0.0
 32
0.0
 42
50.0
 43
0.0
 44
0.0
 50
0.0
 71
     0
  0
ENDTAB
  0
TABLE
  2
UCS
  5
7
330
0
100
AcDbSymbolTable
 70
     0
  0
ENDTAB
  0
TABLE
  2
APPID
  5
9
330
0
100
AcDbSymbolTable
 70
     1
  0
APPID
  5
12
330
9
100
AcDbSymbolTableRecord
100
AcDbRegAppTableRecord
  2
ACAD
 70
     0
  0
ENDTAB
  0
TABLE
  2
DIMSTYLE
  5
A
330
0
100
AcDbSymbolTable
 70
     1
  0
DIMSTYLE
105
213
102
{ACAD_REACTORS
330
36DB
330
36DC
330
36DD
330
36DE
330
36DF
330
36E0
330
36E1
330
36E2
330
36E3
330
36E4
330
36E5
330
36E6
330
36E7
330
36E8
330
36E9
330
36EA
330
36EB
330
36EC
330
3771
330
3772
330
3773
330
3790
330
3791
330
3796
330
3797
330
379A
330
37A3
330
37A7
330
37A8
330
37B8
330
37BA
330
3842
330
384C
330
384D
330
384F
330
3856
330
3857
330
3860
330
3864
102
}
330
A
100
AcDbSymbolTableRecord
100
AcDbDimStyleTableRecord
  2
STANDARD
 70
     0
  3

  4

  5

  6

  7

 40
1.0
 41
0.18
 42
0.0625
 43
0.38
 44
0.18
 45
0.0
 46
0.0
 47
0.0
 48
0.0
140
0.18
141
0.09
142
0.0
143
25.4
144
1.0
145
0.0
146
1.0
147
0.09
 71
     0
 72
     0
 73
     1
 74
     1
 75
     0
 76
     0
 77
     0
 78
     0
170
     0
171
     2
172
     0
173
     0
174
     0
175
     0
176
     0
177
     0
178
     0
270
     2
271
     4
272
     4
273
     2
274
     2
340
11
275
     0
280
     0
281
     0
282
     0
283
     1
284
     0
285
     0
286
     0
287
     3
288
     0
  0
ENDTAB
  0
TABLE
  2
BLOCK_RECORD
  5
1
330
0
100
AcDbSymbolTable
 70
    83
  0
BLOCK_RECORD
  5
1E
102
{ACAD_XDICTIONARY
360
182B4
102
}
330
1
100
AcDbSymbolTableRecord
100
AcDbBlockTableRecord
  2
*MODEL_SPACE
  0
BLOCK_RECORD
  5
1A
102
{ACAD_XDICTIONARY
360
182B2
102
}
330
1
100
AcDbSymbolTableRecord
100
AcDbBlockTableRecord
  2
*PAPER_SPACE
  0
BLOCK_RECORD
  5
46
330
1
100
AcDbSymbolTableRecord
100
AcDbBlockTableRecord
  2
_ORIGIN
  0
ENDTAB
  0
ENDSEC
  0
SECTION
  2
BLOCKS
  0
BLOCK
  5
1F
330
1E
100
AcDbEntity
  8
0
100
AcDbBlockBegin
  2
*MODEL_SPACE
 70
     0
 10
0.0
 20
0.0
 30
0.0
  3
*MODEL_SPACE
  1

  0
ENDBLK
  5
20
330
1E
100
AcDbEntity
  8
0
100
AcDbBlockEnd
  0
BLOCK
  5
1B
330
1A
100
AcDbEntity
 67
     1
  8
0
100
AcDbBlockBegin
  2
*PAPER_SPACE
 70
     0
 10
0.0
 20
0.0
 30
0.0
  3
*PAPER_SPACE
  1

  0
ENDBLK
  5
1C
330
1A
100
AcDbEntity
 67
     1
  8
0
100
AcDbBlockEnd
  0
BLOCK
  5
47
330
46
100
AcDbEntity
  8
0
100
AcDbBlockBegin
  2
_ORIGIN
 70
     0
 10
0.0
 20
0.0
 30
0.0
  3
_ORIGIN
  1

  0
CIRCLE
  5
48
330
46
100
AcDbEntity
  8
0
  6
BYBLOCK
 62
     0
100
AcDbCircle
 10
0.0
 20
0.0
 30
0.0
 40
0.5
  0
LINE
  5
49
330
46
100
AcDbEntity
  8
0
  6
BYBLOCK
 62
     0
100
AcDbLine
 10
0.0
 20
0.0
 30
0.0
 11
-1.0
 21
0.0
 31
0.0
  0
ENDBLK
  5
4A
330
46
100
AcDbEntity
  8
0
100
AcDbBlockEnd
  0
ENDSEC
  0
SECTION
  2
ENTITIES
  0
LINE
  5
CEA8
330
1E
100
AcDbEntity
  8
DETAIL
  6
CONTINUOUS
100
AcDbLine
 10
582.5644490638698
 20
-274.4906542420201
 30
0.0
 11
-582.5644510424496
 21
-274.4906542420201
 31
0.0
  0
LINE
  5
CEA9
330
1E
100
AcDbEntity
  8
DETAIL
  6
CONTINUOUS
100
AcDbLine
 10
-581.3568792680032
 20
-272.9921542420206
 30
0.0
 11
538.0289152669411
 21
-272.9921542420195
 31
0.0
  0
SPLINE
  5
CEAA
330
1E
100
AcDbEntity
  8
DETAIL
  6
CONTINUOUS
100
AcDbSpline
210
0.0
220
0.0
230
1.0
 70
     8
 71
     3
 72
    11
 73
     7
 74
     5
 42
0.0000000001
 43
0.0000000001
 44
0.00000001
 40
0.0
 40
0.0
 40
0.0
 40
0.0
 40
278.7966010391188
 40
579.3620883733419
 40
856.8475679950394
 40
1158.81078480843
 40
1158.81078480843
 40
1158.81078480843
 40
1158.81078480843
 10
579.1808429683424
 20
-285.5616043143518
 30
0.0
 10
486.3291854966456
 20
-289.5457530855726
 30
0.0
 10
293.3758640379833
 20
-297.8251393463866
 30
0.0
 10
7.736729025807079
 20
-301.0355257283736
 30
0.0
 10
-285.6222905715191
 20
-298.0148325290993
 30
0.0
 10
-478.6105167385902
 20
-289.8279601456331
 30
0.0
 10
-579.180844946919
 20
-285.5616043143509
 30
0.0
 11
579.1808429683424
 21
-285.5616043143518
 31
0.0
 11
300.5834673679817
 21
-296.0994911817151
 31
0.0
 11
0.0432899865008949
 21
-299.9999983448423
 31
0.0
 11
-277.422298115558
 21
-296.6775263446568
 31
0.0
 11
-579.180844946919
 21
-285.5616043143509
 31
0.0
  0
SPLINE
  5
CEAB
330
1E
100
AcDbEntity
  8
DETAIL
  6
CONTINUOUS
100
AcDbSpline
210
0.0
220
0.0
230
1.0
 70
     8
 71
     3
 72
    11
 73
     7
 74
     5
 42
0.0000000001
 43
0.0000000001
 44
0.00000001
 40
0.0
 40
0.0
 40
0.0
 40
0.0
 40
313.3413952757377
 40
582.3558534038568
 40
851.3703115319337
 40
1164.711580014792
 40
1164.711580014792
 40
1164.711580014792
 40
1164.711580014792
 10
-582.3558531737144
 20
-273.9839337360103
 30
0.0
 10
-477.9087219352668
 20
-273.9719761444918
 30
0.0
 10
-283.7901051006625
 20
-273.9497525686418
 30
0.0
 10
-0.0000009481251908
 20
-273.9588158622122
 30
0.0
 10
283.7900606794967
 20
-273.9518892726881
 30
0.0
 10
477.9086358433578
 20
-273.9660825076668
 30
0.0
 10
582.3557251368855
 20
-273.9737192879888
 30
0.0
 11
-582.3558531737144
 21
-273.9839337360103
 31
0.0
 11
-269.0144591174066
 21
-273.9562896448142
 31
0.0
 11
-0.0000009892864909
 21
-273.9562896448142
 31
0.0
 11
269.0144571388263
 21
-273.9562896448142
 31
0.0
 11
582.3557251368855
 21
-273.9737192879888
 31
0.0
  0
LINE
  5
CEEC
330
1E
100
AcDbEntity
  8
DETAIL
  6
CONTINUOUS
100
AcDbLine
 10
-571.1283009892849
 20
-12.26145775696659
 30
0.0
 11
571.1282990107171
 21
-12.26145775696659
 31
0.0
  0
LINE
  5
D700
330
1E
100
AcDbEntity
  8
DETAIL
  6
CONTINUOUS
100
AcDbLine
 10
-584.6178948774977
 20
-93.69668817252659
 30
0.0
 11
-578.1089254364395
 21
-83.12457591999919
 31
0.0
  0
LINE
  5
D71D
330
1E
100
AcDbEntity
  8
DETAIL
  6
CONTINUOUS
100
AcDbLine
 10
-579.8808063739308
 20
-265.5173309327246
 30
0.0
 11
-585.0
 21
-115.6496542420209
 31
0.0
  0
ARC
  5
D75C
330
1E
100
AcDbEntity
  8
DETAIL
  6
CONTINUOUS
100
AcDbCircle
 10
-581.3568792680032
 20
-273.9911542420204
 30
0.0
 40
0.9989999999999991
100
AcDbArc
 50
90.0
 51
179.0000000000115
  0
ARC
  5
D75D
330
1E
100
AcDbEntity
  8
DETAIL
  6
CONTINUOUS
100
AcDbCircle
 10
-581.5469889025917
 20
-274.9905509784903
 30
0.0
 40
0.9986033479336484
100
AcDbArc
 50
181.9656400169461
 51
269.9764428195666
  0
LINE
  5
D76F
330
1E
100
AcDbEntity
  8
DETAIL
  6
CONTINUOUS
100
AcDbLine
 10
-579.5151222693621
 20
-275.9891542420218
 30
0.0
 11
-581.5473994787025
 21
-275.9891542420218
 31
0.0
  0
LINE
  5
D770
330
1E
100
AcDbEntity
  8
DETAIL
  6
CONTINUOUS
100
AcDbLine
 10
-582.3646510806065
 20
-274.4906564280353
 30
0.0
 11
-582.3558531737126
 21
-273.9839337358862
 31
0.0
  0
LINE
  5
D771
330
1E
100
AcDbEntity
  8
DETAIL
  6
CONTINUOUS
100
AcDbLine
 10
-582.5450046487112
 20
-275.024803234045
 30
0.0
 11
-582.5644510424496
 21
-274.4906542420201
 31
0.0
  0
LINE
  5
D772
330
1E
100
AcDbEntity
  8
DETAIL
  6
CONTINUOUS
100
AcDbLine
 10
-569.5835366805257
 20
-274.4906542420201
 30
0.0
 11
-569.1813447993172
 21
-286.0079228206686
 31
0.0
  0
LINE
  5
D773
330
1E
100
AcDbEntity
  8
DETAIL
  6
CONTINUOUS
100
AcDbLine
 10
-579.5674510424451
 20
-274.4906542420201
 30
0.0
 11
-579.180844946919
 21
-285.5616043143509
 31
0.0
  0
ARC
  5
D78D
330
1E
100
AcDbEntity
  8
DETAIL
  6
CONTINUOUS
100
AcDbCircle
 10
-576.3306659212702
 20
-266.9986637134261
 30
0.0
 40
0.9992531575737155
100
AcDbArc
 50
2.0141688132365
 51
89.92033317421862
  0
ARC
  5
D790
330
1E
100
AcDbEntity
  8
DETAIL
  6
CONTINUOUS
100
AcDbCircle
 10
-579.3816069825878
 20
-265.4999081839894
 30
0.0
 40
0.4995033378277186
100
AcDbArc
 50
181.9988905403939
 51
269.9996301448811
  0
LINE
  5
D791
330
1E
100
AcDbEntity
  8
DETAIL
  6
CONTINUOUS
100
AcDbLine
 10
-575.1215389879726
 20
-272.9921542420224
 30
0.0
 11
-575.3320301361927
 21
-266.963543324995
 31
0.0
  0
ARC
  5
D86D
330
1E
100
AcDbEntity
  8
DETAIL
  6
CONTINUOUS
100
AcDbCircle
 10
-583.8731573974327
 20
-115.1501546634199
 30
0.0
 40
0.4994995786010936
100
AcDbArc
 50
270.0000496133994
 51
358.0000496134609
  0
LINE
  5
D87B
330
1E
100
AcDbEntity
  8
DETAIL
  6
CONTINUOUS
100
AcDbLine
 10
-583.3384674882672
 20
-114.151154242022
 30
0.0
 11
-583.373962085383
 21
-115.1675865150544
 31
0.0
  0
ARC
  5
D87C
330
1E
100
AcDbEntity
  8
DETAIL
  6
CONTINUOUS
100
AcDbCircle
 10
-582.9164560716945
 20
-94.74403265786532
 30
0.0
 40
1.997955074786593
100
AcDbArc
 50
148.3850433034911
 51
180.0050279050699
  0
LINE
  5
D87F
330
1E
100
AcDbEntity
  8
DETAIL
  6
CONTINUOUS
100
AcDbLine
 10
-584.9144111387941
 20
-94.74420798541087
 30
0.0
 11
-584.9145009892835
 21
-114.1511542420202
 31
0.0
  0
LINE
  5
D955
330
1E
100
AcDbEntity
  8
DETAIL
  6
CONTINUOUS
100
AcDbLine
 10
-576.9225009892831
 20
-78.93456334311395
 30
0.0
 11
-576.9225009892908
 21
0.0
 31
0.0
  0
ARC
  5
D958
330
1E
100
AcDbEntity
  8
DETAIL
  6
CONTINUOUS
100
AcDbCircle
 10
-584.9145009892835
 20
-78.93456334311395
 30
0.0
 40
7.99200000000012
100
AcDbArc
 50
328.3804935222821
 51
0.0
  0
LINE
  5
150A3
330
1E
100
AcDbEntity
  8
DETAIL
  6
CONTINUOUS
100
AcDbLine
 10
-10.03749608440739
 20
-16.15333292876312
 30
0.0
 11
10.03749410583987
 21
-16.15331890853485
 31
0.0
  0
LINE
  5
150A5
330
1E
100
AcDbEntity
  8
DETAIL
  6
CONTINUOUS
100
AcDbLine
 10
-9.976080742198972
 20
-17.84838763641983
 30
0.0
 11
9.976078763618717
 21
-17.84838763641983
 31
0.0
  0
LINE
  5
15199
330
1E
100
AcDbEntity
  8
DETAIL
  6
CONTINUOUS
100
AcDbLine
 10
373.1404433431689
 20
-266.8939875870036
 30
0.0
 11
538.8541895818543
 21
-266.8939875870036
 31
0.0
  0
LINE
  5
15BF7
330
1E
100
AcDbEntity
  8
DETAIL
  6
CONTINUOUS
100
AcDbLine
 10
578.1089234578593
 20
-83.12457591999919
 30
0.0
 11
584.6178928989303
 21
-93.69668817252572
 31
0.0
  0
LINE
  5
15C01
330
1E
100
AcDbEntity
  8
DETAIL
  6
CONTINUOUS
100
AcDbLine
 10
579.8808043920307
 20
-265.5173310281143
 30
0.0
 11
585.0
 21
-115.6496542420209
 31
0.0
  0
LINE
  5
15C09
330
1E
100
AcDbEntity
  8
DETAIL
  6
CONTINUOUS
100
AcDbLine
 10
538.0289152669411
 20
-272.9921542420195
 30
0.0
 11
581.3568772894232
 21
-272.9921542420195
 31
0.0
  0
LINE
  5
15C67
330
1E
100
AcDbEntity
  8
DETAIL
  6
CONTINUOUS
100
AcDbLine
 10
538.8698044651573
 20
-265.999411521806
 30
0.0
 11
538.7477456869401
 21
-272.9921542420224
 31
0.0
  0
ARC
  5
15C96
330
1E
100
AcDbEntity
  8
DETAIL
  6
CONTINUOUS
100
AcDbCircle
 10
581.5473973521692
 20
-274.9901543946752
 30
0.0
 40
0.9989998473458838
100
AcDbArc
 50
270.0000084860429
 51
358.0000084859597
  0
ARC
  5
15C97
330
1E
100
AcDbEntity
  8
DETAIL
  6
CONTINUOUS
100
AcDbCircle
 10
581.3568772894232
 20
-273.9911542420204
 30
0.0
 40
0.9990000000008606
100
AcDbArc
 50
0.9999999999882817
 51
90.0
  0
LINE
  5
15C9C
330
1E
100
AcDbEntity
  8
DETAIL
  6
CONTINUOUS
100
AcDbLine
 10
569.5835347019582
 20
-274.4906542420201
 30
0.0
 11
569.1813427160667
 21
-286.0079259523026
 31
0.0
  0
LINE
  5
15C9D
330
1E
100
AcDbEntity
  8
DETAIL
  6
CONTINUOUS
100
AcDbLine
 10
579.5674490638774
 20
-274.4906542420201
 30
0.0
 11
579.1808429683388
 21
-285.5616043143509
 31
0.0
  0
LINE
  5
15CA0
330
1E
100
AcDbEntity
  8
DETAIL
  6
CONTINUOUS
100
AcDbLine
 10
580.9604700042872
 20
-274.4906542420201
 30
0.0
 11
580.9515697655497
 21
-273.9839337361161
 31
0.0
  0
LINE
  5
15CA2
330
1E
100
AcDbEntity
  8
DETAIL
  6
CONTINUOUS
100
AcDbLine
 10
579.5151202907946
 20
-275.9891542420218
 30
0.0
 11
581.5473973521692
 21
-275.9891542420218
 31
0.0
  0
LINE
  5
15CA3
330
1E
100
AcDbEntity
  8
DETAIL
  6
CONTINUOUS
100
AcDbLine
 10
581.0828572656991
 20
-275.0075891861688
 30
0.0
 11
581.1009090317237
 21
-274.4906542420201
 31
0.0
  0
LINE
  5
15CA7
330
1E
100
AcDbEntity
  8
DETAIL
  6
CONTINUOUS
100
AcDbLine
 10
582.545788640964
 20
-275.0250188386835
 30
0.0
 11
582.5644490638698
 21
-274.4906542420201
 31
0.0
  0
LINE
  5
15CA9
330
1E
100
AcDbEntity
  8
DETAIL
  6
CONTINUOUS
100
AcDbLine
 10
582.3646491020261
 20
-274.4906564280353
 30
0.0
 11
582.3558511951451
 21
-273.9839337358862
 31
0.0
  0
ARC
  5
15CC6
330
1E
100
AcDbEntity
  8
DETAIL
  6
CONTINUOUS
100
AcDbCircle
 10
576.3306014058307
 20
-266.9985671464546
 30
0.0
 40
0.9991561003631435
100
AcDbArc
 50
90.39803996597271
 51
177.0395602237165
  0
ARC
  5
15CC9
330
1E
100
AcDbEntity
  8
DETAIL
  6
CONTINUOUS
100
AcDbCircle
 10
579.3816084578792
 20
-265.4999117605365
 30
0.0
 40
0.4994997613127146
100
AcDbArc
 50
270.0007500232645
 51
358.0014946953952
  0
LINE
  5
15CD4
330
1E
100
AcDbEntity
  8
DETAIL
  6
CONTINUOUS
100
AcDbLine
 10
575.3327787468297
 20
-266.9469642969497
 30
0.0
 11
575.1215378182023
 21
-272.9921542420224
 31
0.0
  0
ARC
  5
15E01
330
1E
100
AcDbEntity
  8
DETAIL
  6
CONTINUOUS
100
AcDbCircle
 10
583.8731554186706
 20
-115.1501546636072
 30
0.0
 40
0.4994995784139655
100
AcDbArc
 50
181.9999504074869
 51
269.9999504074446
  0
LINE
  5
15E04
330
1E
100
AcDbEntity
  8
DETAIL
  6
CONTINUOUS
100
AcDbLine
 10
583.3384655096997
 20
-114.151154242022
 30
0.0
 11
583.3739601068153
 21
-115.1675865154174
 31
0.0
  0
ARC
  5
15E0F
330
1E
100
AcDbEntity
  8
DETAIL
  6
CONTINUOUS
100
AcDbCircle
 10
582.9164990107074
 20
-94.74419131674492
 30
0.0
 40
1.998000000000905
100
AcDbArc
 50
359.9999999999348
 51
31.61950647767342
  0
LINE
  5
15E11
330
1E
100
AcDbEntity
  8
DETAIL
  6
CONTINUOUS
100
AcDbLine
 10
584.9144990107142
 20
-94.74419131674677
 30
0.0
 11
584.9144990107142
 21
-114.1511542420202
 31
0.0
  0
LINE
  5
15EE0
330
1E
100
AcDbEntity
  8
DETAIL
  6
CONTINUOUS
100
AcDbLine
 10
576.9224990107102
 20
-78.93456334311395
 30
0.0
 11
576.9224990107102
 21
0.0
 31
0.0
  0
ARC
  5
15EE8
330
1E
100
AcDbEntity
  8
DETAIL
  6
CONTINUOUS
100
AcDbCircle
 10
584.9144990107142
 20
-78.93456334311395
 30
0.0
 40
7.991999999999991
100
AcDbArc
 50
180.0
 51
211.6195064777177
  0
LINE
  5
16436
330
1E
100
AcDbEntity
  8
BASIS
  6
CONTINUOUS
100
AcDbLine
 10
0.0
 20
-383.8906116951882
 30
0.0
 11
0.0
 21
79.10129269054504
 31
0.0
  0
LINE
  5
16438
330
1E
100
AcDbEntity
  8
DETAIL
  6
CONTINUOUS
100
AcDbLine
 10
-576.9225009892908
 20
0.0
 30
0.0
 11
576.9224990107102
 21
0.0
 31
0.0
  0
LINE
  5
1643A
330
1E
100
AcDbEntity
  8
DETAIL
  6
CONTINUOUS
100
AcDbLine
 10
-576.9225009892908
 20
-5.000000000000908
 30
0.0
 11
576.9224990107102
 21
-5.000000000000908
 31
0.0
  0
LINE
  5
16442
330
1E
100
AcDbEntity
  8
DETAIL
  6
CONTINUOUS
100
AcDbLine
 10
579.5493972974545
 20
-275.0075891960505
 30
0.0
 11
582.545788640964
 21
-275.0250188386843
 31
0.0
  0
LINE
  5
16443
330
1E
100
AcDbEntity
  8
DETAIL
  6
CONTINUOUS
100
AcDbLine
 10
538.0289152669411
 20
-272.9921542420195
 30
0.0
 11
538.0289152669411
 21
-274.4906542420201
 31
0.0
  0
LINE
  5
16444
330
1E
100
AcDbEntity
  8
DETAIL
  6
CONTINUOUS
100
AcDbLine
 10
-579.5493992760202
 20
-275.0075891960505
 30
0.0
 11
-582.5450046487076
 21
-275.024803234045
 31
0.0
  0
LINE
  5
16445
330
1E
100
AcDbEntity
  8
DETAIL
  6
CONTINUOUS
100
AcDbLine
 10
579.3816149965188
 20
-265.999411521806
 30
0.0
 11
-579.3816102069759
 21
-265.999411521806
 31
0.0
  0
LINE
  5
16446
330
1E
100
AcDbEntity
  8
DETAIL
  6
CONTINUOUS
100
AcDbLine
 10
584.9144990107142
 20
-114.1511542420202
 30
0.0
 11
-584.9145009892835
 21
-114.1511542420202
 31
0.0
  0
LINE
  5
16447
330
1E
100
AcDbEntity
  8
DETAIL
  6
CONTINUOUS
100
AcDbLine
 10
-585.0
 20
-115.6496542420209
 30
0.0
 11
585.0
 21
-115.6496542420209
 31
0.0
  0
LINE
  5
16448
330
1E
100
AcDbEntity
  8
DETAIL
  6
CONTINUOUS
100
AcDbLine
 10
-527.3952973524592
 20
-35.94191184287863
 30
0.0
 11
-527.3948670328937
 21
-102.1217560134982
 31
0.0
  0
LINE
  5
16449
330
1E
100
AcDbEntity
  8
DETAIL
  6
CONTINUOUS
100
AcDbLine
 10
-527.3948670328937
 20
-102.1217560134982
 30
0.0
 11
-95.1745109257663
 21
-102.0997981597602
 31
0.0
  0
LINE
  5
1644A
330
1E
100
AcDbEntity
  8
DETAIL
  6
CONTINUOUS
100
AcDbLine
 10
-95.1745109257663
 20
-102.0997981597602
 30
0.0
 11
-95.15298538172649
 21
-13.96482098928663
 31
0.0
  0
LINE
  5
1644B
330
1E
100
AcDbEntity
  8
DETAIL
  6
CONTINUOUS
100
AcDbLine
 10
-95.15298538172649
 20
-13.96482098928663
 30
0.0
 11
-519.4817665968438
 21
-13.96482098928663
 31
0.0
  0
LINE
  5
1644C
330
1E
100
AcDbEntity
  8
DETAIL
  6
CONTINUOUS
100
AcDbLine
 10
-519.4817665968438
 20
-13.96482098928663
 30
0.0
 11
-519.4817665968438
 21
-102.1213540085954
 31
0.0
  0
LINE
  5
1644D
330
1E
100
AcDbEntity
  8
DETAIL
  6
CONTINUOUS
100
AcDbLine
 10
-95.15833343674783
 20
-35.86209365931699
 30
0.0
 11
-527.3952973524592
 21
-35.94191184287863
 31
0.0
  0
LINE
  5
1644E
330
1E
100
AcDbEntity
  8
DETAIL
  6
CONTINUOUS
100
AcDbLine
 10
-527.3949706747735
 20
-86.18243098066248
 30
0.0
 11
-95.17062336603521
 21
-86.18243098066248
 31
0.0
  0
LINE
  5
1644F
330
1E
100
AcDbEntity
  8
DETAIL
  6
CONTINUOUS
100
AcDbLine
 10
-527.3950809012204
 20
-69.2304498249332
 30
0.0
 11
-95.16648311855716
 21
-69.2304498249332
 31
0.0
  0
LINE
  5
16450
330
1E
100
AcDbEntity
  8
DETAIL
  6
CONTINUOUS
100
AcDbLine
 10
-527.3951915832131
 20
-52.20840969011351
 30
0.0
 11
-95.16232576030596
 21
-52.20840969011351
 31
0.0
  0
LINE
  5
16451
330
1E
100
AcDbEntity
  8
DETAIL
  6
CONTINUOUS
100
AcDbLine
 10
-423.6578034352241
 20
-13.96482098928663
 30
0.0
 11
-423.6578034352241
 21
-102.1164859163409
 31
0.0
  0
LINE
  5
16452
330
1E
100
AcDbEntity
  8
DETAIL
  6
CONTINUOUS
100
AcDbLine
 10
-310.3669783206676
 20
-13.96482098928663
 30
0.0
 11
-310.3669783206676
 21
-102.1107304646784
 31
0.0
  0
LINE
  5
16453
330
1E
100
AcDbEntity
  8
DETAIL
  6
CONTINUOUS
100
AcDbLine
 10
-197.0721948048048
 20
-13.96482098928663
 30
0.0
 11
-197.0721948048048
 21
-102.1049748119174
 31
0.0
  0
LINE
  5
16454
330
1E
100
AcDbEntity
  8
DETAIL
  6
CONTINUOUS
100
AcDbLine
 10
-571.1283009892849
 20
-12.26145775696659
 30
0.0
 11
-576.9225009892908
 21
-9.513032646997087
 31
0.0
  0
LINE
  5
16455
330
1E
100
AcDbEntity
  8
DETAIL
  6
CONTINUOUS
100
AcDbLine
 10
571.1282990107171
 20
-12.26145775696659
 30
0.0
 11
576.922499010714
 21
-9.51303264699618
 31
0.0
  0
LINE
  5
16456
330
1E
100
AcDbEntity
  8
DETAIL
  6
CONTINUOUS
100
AcDbLine
 10
-519.4817665968438
 20
-33.90384903333414
 30
0.0
 11
-95.15298538172649
 21
-33.90384903334325
 31
0.0
  0
LINE
  5
16457
330
1E
100
AcDbEntity
  8
DETAIL
  6
CONTINUOUS
100
AcDbLine
 10
-69.68201659684202
 20
-13.96482098928663
 30
0.0
 11
-69.66048893168589
 21
-102.0998002808764
 31
0.0
  0
LINE
  5
16458
330
1E
100
AcDbEntity
  8
DETAIL
  6
CONTINUOUS
100
AcDbLine
 10
-69.66048893168589
 20
-102.0998002808764
 30
0.0
 11
519.4381705415944
 21
-102.1213258249235
 31
0.0
  0
LINE
  5
16459
330
1E
100
AcDbEntity
  8
DETAIL
  6
CONTINUOUS
100
AcDbLine
 10
519.4381705415944
 20
-102.1213258249235
 30
0.0
 11
519.4381705415962
 21
-13.96482098928663
 31
0.0
  0
LINE
  5
1645A
330
1E
100
AcDbEntity
  8
DETAIL
  6
CONTINUOUS
100
AcDbLine
 10
519.4381705415962
 20
-13.96482098928663
 30
0.0
 11
-69.68201659684202
 21
-13.96482098928663
 31
0.0
  0
LINE
  5
1645B
330
1E
100
AcDbEntity
  8
DETAIL
  6
CONTINUOUS
100
AcDbLine
 10
-31.37253598904861
 20
-14.24735075591978
 30
0.0
 11
-31.37253598904861
 21
-24.96698376543008
 31
0.0
  0
LINE
  5
1645C
330
1E
100
AcDbEntity
  8
DETAIL
  6
CONTINUOUS
100
AcDbLine
 10
-31.37253598904861
 20
-24.96698376543008
 30
0.0
 11
30.7527117651698
 21
-24.47344299735687
 31
0.0
  0
LINE
  5
1645D
330
1E
100
AcDbEntity
  8
DETAIL
  6
CONTINUOUS
100
AcDbLine
 10
30.7527117651698
 20
-24.47344299735687
 30
0.0
 11
30.7527117651698
 21
-13.96482098928663
 31
0.0
  0
LINE
  5
1645E
330
1E
100
AcDbEntity
  8
DETAIL
  6
CONTINUOUS
100
AcDbLine
 10
10.03749410584532
 20
-16.15331890853394
 30
0.0
 11
9.976078763618717
 21
-17.84838763641983
 31
0.0
  0
LINE
  5
1645F
330
1E
100
AcDbEntity
  8
DETAIL
  6
CONTINUOUS
100
AcDbLine
 10
-10.03749608440739
 20
-16.15333292876312
 30
0.0
 11
-9.976080742198972
 21
-17.84838763641983
 31
0.0
  0
LINE
  5
16460
330
1E
100
AcDbEntity
  8
DETAIL
  6
CONTINUOUS
100
AcDbLine
 10
-10.03749608440921
 20
-16.15333292876221
 30
0.0
 11
-16.62533356484709
 21
-13.96482098928663
 31
0.0
  0
LINE
  5
16461
330
1E
100
AcDbEntity
  8
DETAIL
  6
CONTINUOUS
100
AcDbLine
 10
-10.00829866768617
 20
-16.95917747646035
 30
0.0
 11
-19.02175352531229
 21
-13.96482098928752
 31
0.0
  0
LINE
  5
16462
330
1E
100
AcDbEntity
  8
DETAIL
  6
CONTINUOUS
100
AcDbLine
 10
10.03749410583987
 20
-16.15331890853485
 30
0.0
 11
16.62535500921149
 21
-13.96482098928663
 31
0.0
  0
LINE
  5
16463
330
1E
100
AcDbEntity
  8
DETAIL
  6
CONTINUOUS
100
AcDbLine
 10
10.00829642315693
 20
-16.95917746210852
 30
0.0
 11
19.02175165585503
 21
-13.96482098928663
 31
0.0
  0
LINE
  5
16464
330
1E
100
AcDbEntity
  8
DETAIL
  6
CONTINUOUS
100
AcDbLine
 10
31.91301256010955
 20
-13.96482098928663
 30
0.0
 11
32.14187875648167
 21
-102.1035201184868
 31
0.0
  0
LINE
  5
16465
330
1E
100
AcDbEntity
  8
DETAIL
  6
CONTINUOUS
100
AcDbLine
 10
-69.67689452195553
 20
-34.93476643907797
 30
0.0
 11
519.4381705415962
 21
-34.93476643907797
 31
0.0
  0
LINE
  5
16466
330
1E
100
AcDbEntity
  8
DETAIL
  6
CONTINUOUS
100
AcDbLine
 10
-69.67266301113339
 20
-52.25871290739906
 30
0.0
 11
519.4381705415962
 21
-52.25871290739906
 31
0.0
  0
LINE
  5
16467
330
1E
100
AcDbEntity
  8
DETAIL
  6
CONTINUOUS
100
AcDbLine
 10
-69.6685171334666
 20
-69.23207438096961
 30
0.0
 11
519.4381705415944
 21
-69.23207438096961
 31
0.0
  0
LINE
  5
16468
330
1E
100
AcDbEntity
  8
DETAIL
  6
CONTINUOUS
100
AcDbLine
 10
-69.66437318316457
 20
-86.1975451537919
 30
0.0
 11
519.4381705415944
 21
-86.1975451537919
 31
0.0
  0
LINE
  5
16469
330
1E
100
AcDbEntity
  8
DETAIL
  6
CONTINUOUS
100
AcDbLine
 10
145.5100059625508
 20
-13.96482098928663
 30
0.0
 11
145.5100059625508
 21
-102.1076625665755
 31
0.0
  0
LINE
  5
1646A
330
1E
100
AcDbEntity
  8
DETAIL
  6
CONTINUOUS
100
AcDbLine
 10
258.7915342814048
 20
-13.96482098928663
 30
0.0
 11
258.7915342814048
 21
-102.1118018503582
 31
0.0
  0
LINE
  5
1646B
330
1E
100
AcDbEntity
  8
DETAIL
  6
CONTINUOUS
100
AcDbLine
 10
373.1292294344056
 20
-13.96482098928663
 30
0.0
 11
373.1292294344056
 21
-102.1159797262598
 31
0.0
  0
LINE
  5
1646C
330
1E
100
AcDbEntity
  8
DETAIL
  6
CONTINUOUS
100
AcDbLine
 10
-536.8883650985626
 20
-120.6446542420225
 30
0.0
 11
-537.2593384271675
 21
-263.4721312407518
 31
0.0
  0
LINE
  5
1646D
330
1E
100
AcDbEntity
  8
DETAIL
  6
CONTINUOUS
100
AcDbLine
 10
-537.2593384271675
 20
-263.4721312407518
 30
0.0
 11
537.2688648709116
 21
-263.4654861314775
 31
0.0
  0
LINE
  5
1646E
330
1E
100
AcDbEntity
  8
DETAIL
  6
CONTINUOUS
100
AcDbLine
 10
537.2688648709116
 20
-263.4654861314775
 30
0.0
 11
537.2688648709116
 21
-120.6446542420225
 31
0.0
  0
LINE
  5
1646F
330
1E
100
AcDbEntity
  8
DETAIL
  6
CONTINUOUS
100
AcDbLine
 10
-536.8883650985643
 20
-120.6446542420225
 30
0.0
 11
537.2688648709116
 21
-120.6446542420225
 31
0.0
  0
LINE
  5
16471
330
1E
100
AcDbEntity
  8
DETAIL
  6
CONTINUOUS
100
AcDbLine
 10
-536.9504741037053
 20
-144.5570808760066
 30
0.0
 11
537.2688648709136
 21
-144.5570808760066
 31
0.0
  0
LINE
  5
16472
330
1E
100
AcDbEntity
  8
DETAIL
  6
CONTINUOUS
100
AcDbLine
 10
-537.0115621890962
 20
-168.0764458506355
 30
0.0
 11
537.2688648709136
 21
-168.0764458506355
 31
0.0
  0
LINE
  5
16473
330
1E
100
AcDbEntity
  8
DETAIL
  6
CONTINUOUS
100
AcDbLine
 10
-537.0657791222693
 20
-188.9503663688128
 30
0.0
 11
537.2688648709136
 21
-188.9503663688128
 31
0.0
  0
LINE
  5
16474
330
1E
100
AcDbEntity
  8
DETAIL
  6
CONTINUOUS
100
AcDbLine
 10
-537.1160287036436
 20
-208.2968270832215
 30
0.0
 11
537.2688648709136
 21
-208.2968270832215
 31
0.0
  0
LINE
  5
16475
330
1E
100
AcDbEntity
  8
DETAIL
  6
CONTINUOUS
100
AcDbLine
 10
-537.1756125966076
 20
-231.2370668406265
 30
0.0
 11
537.2688648709136
 21
-231.2370668406265
 31
0.0
  0
LINE
  5
16476
330
1E
100
AcDbEntity
  8
DETAIL
  6
CONTINUOUS
100
AcDbLine
 10
373.633326392246
 20
-120.6446542420215
 30
0.0
 11
373.633326392246
 21
-263.4664980881962
 31
0.0
  0
LINE
  5
16477
330
1E
100
AcDbEntity
  8
DETAIL
  6
CONTINUOUS
100
AcDbLine
 10
258.7776254034524
 20
-120.6446542420215
 30
0.0
 11
258.7776254034488
 21
-272.9921542420195
 31
0.0
  0
LINE
  5
16478
330
1E
100
AcDbEntity
  8
DETAIL
  6
CONTINUOUS
100
AcDbLine
 10
145.4776124400068
 20
-120.6446542420215
 30
0.0
 11
145.477612440005
 21
-272.9921542420206
 31
0.0
  0
LINE
  5
16479
330
1E
100
AcDbEntity
  8
DETAIL
  6
CONTINUOUS
100
AcDbLine
 10
32.14611384422096
 20
-120.6446542420215
 30
0.0
 11
32.14611384421914
 21
-272.9921542420206
 31
0.0
  0
LINE
  5
1647A
330
1E
100
AcDbEntity
  8
DETAIL
  6
CONTINUOUS
100
AcDbLine
 10
-82.45014843937317
 20
-120.6446542420215
 30
0.0
 11
-82.45014843937317
 21
-272.9921542420206
 31
0.0
  0
LINE
  5
1647B
330
1E
100
AcDbEntity
  8
DETAIL
  6
CONTINUOUS
100
AcDbLine
 10
-197.0023235745774
 20
-120.6446542420215
 30
0.0
 11
-197.0023235745811
 21
-272.9921542420206
 31
0.0
  0
LINE
  5
1647C
330
1E
100
AcDbEntity
  8
DETAIL
  6
CONTINUOUS
100
AcDbLine
 10
-310.3237264312738
 20
-120.6446542420215
 30
0.0
 11
-310.3237264312756
 21
-272.9921542420206
 31
0.0
  0
LINE
  5
1647D
330
1E
100
AcDbEntity
  8
DETAIL
  6
CONTINUOUS
100
AcDbLine
 10
-423.6405172057147
 20
-120.6446542420215
 30
0.0
 11
-423.6405172057166
 21
-272.9921542420206
 31
0.0
  0
LINE
  5
1647E
330
1E
100
AcDbEntity
  8
DETAIL
  6
CONTINUOUS
100
AcDbLine
 10
-526.9670294185742
 20
-120.6446542420215
 30
0.0
 11
-526.9670294185742
 21
-263.4720675909393
 31
0.0
  0
LINE
  5
1647F
330
1E
100
AcDbEntity
  8
DETAIL
  6
CONTINUOUS
100
AcDbLine
 10
-71.17875098927834
 20
-120.6446542420225
 30
0.0
 11
-71.17875098927834
 21
-263.4692488999953
 31
0.0
  0
LINE
  5
16480
330
1E
100
AcDbEntity
  8
DETAIL
  6
CONTINUOUS
100
AcDbLine
 10
-93.65625098928827
 20
-120.6446542420225
 30
0.0
 11
-93.65625098928827
 21
-263.4693879056003
 31
0.0
  0
LINE
  5
16481
330
1E
100
AcDbEntity
  8
DETAIL
  6
CONTINUOUS
100
AcDbLine
 10
362.1374990107105
 20
-120.6446542420225
 30
0.0
 11
362.1374990107105
 21
-272.9921542420195
 31
0.0
  0
LINE
  5
1763E
330
1E
100
AcDbEntity
  8
NOTE
  6
CONTINUOUS
 62
     4
100
AcDbLine
 10
-607.3199101974532
 20
285.2402434011555
 30
0.0
 11
-1333.084361591025
 21
285.2402434011537
 31
0.0
  0
TEXT
  5
1763F
330
1E
100
AcDbEntity
  8
NOTE
 62
     4
100
AcDbText
 10
-1322.123994529017
 20
308.7711634011538
 30
0.0
 40
64.0
  1
D,RL,RG%%C75～%%C80
 41
0.9
100
AcDbText
  0
LINE
  5
17641
330
1E
100
AcDbEntity
  8
NOTE
  6
CONTINUOUS
 62
     4
100
AcDbLine
 10
-530.4999999999998
 20
0.0000000000009095
 30
0.0
 11
-607.3199101974532
 21
285.2402434011555
 31
0.0
  0
LINE
  5
17646
330
1E
100
AcDbEntity
  8
NOTE
  6
DASHDOT
 62
     4
100
AcDbLine
 10
-550.4999999999999
 20
0.0
 30
0.0
 11
-510.5
 21
0.0
 31
0.0
  0
LINE
  5
17647
330
1E
100
AcDbEntity
  8
NOTE
  6
CONTINUOUS
 62
     4
100
AcDbLine
 10
-530.4999999999998
 20
0.0000000000009095
 30
0.0
 11
-530.8476984398255
 21
39.99848677554928
 31
0.0
  0
LINE
  5
17648
330
1E
100
AcDbEntity
  8
NOTE
  6
CONTINUOUS
 62
     4
100
AcDbLine
 10
-550.800359650453
 20
34.46586397651572
 30
0.0
 11
-530.4999999999998
 21
0.0000000000009095
 31
0.0
  0
LINE
  5
17649
330
1E
100
AcDbEntity
  8
NOTE
  6
DASHDOT
 62
     4
100
AcDbLine
 10
-530.4999999999998
 20
20.0
 30
0.0
 11
-530.4999999999998
 21
-20.0
 31
0.0
  0
LINE
  5
17657
330
1E
100
AcDbEntity
  8
NOTE
  6
CONTINUOUS
 62
     4
100
AcDbLine
 10
653.3112680337726
 20
290.1634163783755
 30
0.0
 11
1445.479181782236
 21
290.1634163783755
 31
0.0
  0
TEXT
  5
17658
330
1E
100
AcDbEntity
  8
NOTE
 62
     4
100
AcDbText
 10
699.0996980418876
 20
316.9142763783757
 30
0.0
 40
64.0
  1
D,RL,RG%%C75～%%C80
 41
0.9
100
AcDbText
  0
POINT
  5
17662
330
1E
100
AcDbEntity
  8
ARRANGE
  6
CONTINUOUS
100
AcDbPoint
 10
0.0
 20
0.0
 30
0.0
  0
CIRCLE
  5
17663
330
1E
100
AcDbEntity
  8
ARRANGE
  6
CONTINUOUS
100
AcDbCircle
 10
0.0
 20
0.0
 30
0.0
 40
40.0
  0
LINE
  5
17664
330
1E
100
AcDbEntity
  8
NOTE
  6
CONTINUOUS
 62
     4
100
AcDbLine
 10
449.2000000000007
 20
-0.0000000000009095
 30
0.0
 11
653.3112680337726
 21
290.1634163783755
 31
0.0
  0
LINE
  5
17668
330
1E
100
AcDbEntity
  8
NOTE
  6
CONTINUOUS
 62
     4
100
AcDbLine
 10
449.2000000000007
 20
-0.0000000000009095
 30
0.0
 11
463.2402630646047
 21
37.45491758922343
 31
0.0
  0
LINE
  5
17669
330
1E
100
AcDbEntity
  8
NOTE
  6
CONTINUOUS
 62
     4
100
AcDbLine
 10
480.0866864137987
 20
25.4167854765501
 30
0.0
 11
449.2000000000007
 21
-0.0000000000009095
 31
0.0
  0
LINE
  5
1766A
330
1E
100
AcDbEntity
  8
NOTE
  6
DASHDOT
 62
     4
100
AcDbLine
 10
429.2000000000006
 20
-0.0000000000009095
 30
0.0
 11
469.2000000000006
 21
-0.0000000000009095
 31
0.0
  0
LINE
  5
1766B
330
1E
100
AcDbEntity
  8
NOTE
  6
DASHDOT
 62
     4
100
AcDbLine
 10
449.2000000000007
 20
19.99999999999909
 30
0.0
 11
449.2000000000007
 21
-20.00000000000091
 31
0.0
  0
TEXT
  5
1810A
330
1E
100
AcDbEntity
  8
ETC
100
AcDbText
 10
-1059.154749978844
 20
489.909652329483
 30
0.0
 40
64.0
  1
PKFY-P63VKM_1
 41
0.781237020685294
 72
     5
 11
-437.7365026680275
 21
489.909652329483
 31
0.0
100
AcDbText
  0
LINE
  5
181CB
330
1E
100
AcDbEntity
  8
SIZE
  6
CONTINUOUS
100
AcDbLine
 10
0.0000000000000012
 20
99.10129269054507
 30
0.0
 11
0.0000000000000041
 21
146.0733136105291
 31
0.0
  0
LINE
  5
181CC
330
1E
100
AcDbEntity
  8
SIZE
  6
CONTINUOUS
100
AcDbLine
 10
-530.4999999999998
 20
40.0
 30
0.0
 11
-530.4999999999998
 21
146.0733136105291
 31
0.0
  0
LINE
  5
181CD
330
1E
100
AcDbEntity
  8
SIZE
  6
CONTINUOUS
100
AcDbLine
 10
-9.999999999999996
 20
126.073313610529
 30
0.0
 11
-520.5
 21
126.073313610529
 31
0.0
  0
LINE
  5
181D1
330
1E
100
AcDbEntity
  8
SIZE
  6
CONTINUOUS
100
AcDbLine
 10
585.0
 20
-135.6496542420209
 30
0.0
 11
585.0
 21
-482.9307606898336
 31
0.0
  0
LINE
  5
181D2
330
1E
100
AcDbEntity
  8
SIZE
  6
CONTINUOUS
100
AcDbLine
 10
-585.0
 20
-135.6496542420209
 30
0.0
 11
-585.0
 21
-482.9307606898336
 31
0.0
  0
LINE
  5
181D3
330
1E
100
AcDbEntity
  8
SIZE
  6
CONTINUOUS
100
AcDbLine
 10
575.0
 20
-462.9307606898335
 30
0.0
 11
-575.0
 21
-462.9307606898335
 31
0.0
  0
LINE
  5
181D7
330
1E
100
AcDbEntity
  8
SIZE
  6
CONTINUOUS
100
AcDbLine
 10
-596.9225009892908
 20
0.0000000000000057
 30
0.0
 11
-768.0811843984446
 21
0.0000000000000542
 31
0.0
  0
LINE
  5
181D8
330
1E
100
AcDbEntity
  8
SIZE
  6
CONTINUOUS
100
AcDbLine
 10
-20.0
 20
-300.0000000532835
 30
0.0
 11
-768.0811843984448
 21
-300.0000000532833
 31
0.0
  0
LINE
  5
181D9
330
1E
100
AcDbEntity
  8
SIZE
  6
CONTINUOUS
100
AcDbLine
 10
-748.0811843984446
 20
-9.999999999999946
 30
0.0
 11
-748.0811843984448
 21
-290.0000000532833
 31
0.0
  0
LINE
  5
181DD
330
1E
100
AcDbEntity
  8
SIZE
  6
CONTINUOUS
100
AcDbLine
 10
-530.4999999999998
 20
40.0
 30
0.0
 11
-530.4999999999998
 21
146.0733136105291
 31
0.0
  0
LINE
  5
181DE
330
1E
100
AcDbEntity
  8
SIZE
  6
CONTINUOUS
100
AcDbLine
 10
-585.0
 20
-95.64965424202092
 30
0.0
 11
-585.0
 21
146.0733136105291
 31
0.0
  0
LINE
  5
181DF
330
1E
100
AcDbEntity
  8
SIZE
  6
CONTINUOUS
100
AcDbLine
 10
-520.5
 20
126.073313610529
 30
0.0
 11
-510.5
 21
126.073313610529
 31
0.0
  0
LINE
  5
181E0
330
1E
100
AcDbEntity
  8
SIZE
  6
CONTINUOUS
100
AcDbLine
 10
-595.0
 20
126.073313610529
 30
0.0
 11
-762.142857142857
 21
126.073313610529
 31
0.0
  0
LINE
  5
181E1
330
1E
100
AcDbEntity
  8
SIZE
  6
CONTINUOUS
100
AcDbLine
 10
-530.4999999999998
 20
126.073313610529
 30
0.0
 11
-585.0
 21
126.073313610529
 31
0.0
  0
LINE
  5
181E5
330
1E
100
AcDbEntity
  8
SIZE
  6
CONTINUOUS
100
AcDbLine
 10
449.2000000000007
 20
39.99999999999909
 30
0.0
 11
449.2000000000007
 21
146.0733136105291
 31
0.0
  0
LINE
  5
181E6
330
1E
100
AcDbEntity
  8
SIZE
  6
CONTINUOUS
100
AcDbLine
 10
585.0
 20
-95.64965424202092
 30
0.0
 11
585.0
 21
146.0733136105291
 31
0.0
  0
LINE
  5
181E7
330
1E
100
AcDbEntity
  8
SIZE
  6
CONTINUOUS
100
AcDbLine
 10
439.2000000000006
 20
126.073313610529
 30
0.0
 11
429.2000000000006
 21
126.073313610529
 31
0.0
  0
LINE
  5
181E8
330
1E
100
AcDbEntity
  8
SIZE
  6
CONTINUOUS
100
AcDbLine
 10
595.0
 20
126.073313610529
 30
0.0
 11
796.4285714285713
 21
126.073313610529
 31
0.0
  0
LINE
  5
181E9
330
1E
100
AcDbEntity
  8
SIZE
  6
CONTINUOUS
100
AcDbLine
 10
449.2000000000007
 20
126.073313610529
 30
0.0
 11
585.0
 21
126.073313610529
 31
0.0
  0
LINE
  5
181ED
330
1E
100
AcDbEntity
  8
SIZE
  6
CONTINUOUS
100
AcDbLine
 10
0.0000000000000012
 20
99.10129269054507
 30
0.0
 11
0.0000000000000041
 21
146.0733136105291
 31
0.0
  0
LINE
  5
181EE
330
1E
100
AcDbEntity
  8
SIZE
  6
CONTINUOUS
100
AcDbLine
 10
449.2000000000007
 20
39.99999999999909
 30
0.0
 11
449.2000000000007
 21
146.0733136105291
 31
0.0
  0
LINE
  5
181EF
330
1E
100
AcDbEntity
  8
SIZE
  6
CONTINUOUS
100
AcDbLine
 10
10.0
 20
126.073313610529
 30
0.0
 11
439.2000000000006
 21
126.073313610529
 31
0.0
  0
CIRCLE
  5
181F3
330
1E
100
AcDbEntity
  8
SIZE
  6
BYBLOCK
100
AcDbCircle
 10
-748.0811843984448
 20
-300.0000000532833
 30
0.0
 40
5.0
  0
LINE
  5
181F4
330
1E
100
AcDbEntity
  8
SIZE
  6
BYBLOCK
100
AcDbLine
 10
-748.0811843984448
 20
-300.0000000532833
 30
0.0
 11
-748.0811843984448
 21
-290.0000000532833
 31
0.0
  0
TEXT
  5
181F5
330
1E
100
AcDbEntity
  8
SIZE
  6
CONTINUOUS
100
AcDbText
 10
-758.0811843984446
 20
-207.8571428837846
 30
0.0
 40
50.0
  1
300
 50
90.0
 41
0.9
100
AcDbText
  0
CIRCLE
  5
181F6
330
1E
100
AcDbEntity
  8
SIZE
  6
BYBLOCK
100
AcDbCircle
 10
-585.0
 20
-462.9307606898335
 30
0.0
 40
5.0
  0
LINE
  5
181F7
330
1E
100
AcDbEntity
  8
SIZE
  6
BYBLOCK
100
AcDbLine
 10
-585.0
 20
-462.9307606898335
 30
0.0
 11
-575.0
 21
-462.9307606898335
 31
0.0
  0
TEXT
  5
181F8
330
1E
100
AcDbEntity
  8
SIZE
  6
CONTINUOUS
100
AcDbText
 10
-752.1428571428571
 20
136.0733136105291
 30
0.0
 40
50.0
  1
54.5
 41
0.9
100
AcDbText
  0
CIRCLE
  5
181F9
330
1E
100
AcDbEntity
  8
SIZE
  6
BYBLOCK
100
AcDbCircle
 10
-748.0811843984446
 20
0.0000000000000485
 30
0.0
 40
5.0
  0
LINE
  5
181FA
330
1E
100
AcDbEntity
  8
SIZE
  6
BYBLOCK
100
AcDbLine
 10
-748.0811843984446
 20
0.0000000000000485
 30
0.0
 11
-748.0811843984446
 21
-9.999999999999953
 31
0.0
  0
CIRCLE
  5
181FB
330
1E
100
AcDbEntity
  8
SIZE
  6
BYBLOCK
100
AcDbCircle
 10
-585.0
 20
126.073313610529
 30
0.0
 40
5.0
  0
LINE
  5
181FC
330
1E
100
AcDbEntity
  8
SIZE
  6
BYBLOCK
100
AcDbLine
 10
-585.0
 20
126.073313610529
 30
0.0
 11
-595.0
 21
126.073313610529
 31
0.0
  0
CIRCLE
  5
181FD
330
1E
100
AcDbEntity
  8
SIZE
  6
BYBLOCK
100
AcDbCircle
 10
-530.4999999999998
 20
126.073313610529
 30
0.0
 40
5.0
  0
LINE
  5
181FE
330
1E
100
AcDbEntity
  8
SIZE
  6
BYBLOCK
100
AcDbLine
 10
-530.4999999999998
 20
126.073313610529
 30
0.0
 11
-520.5
 21
126.073313610529
 31
0.0
  0
CIRCLE
  5
181FF
330
1E
100
AcDbEntity
  8
SIZE
  6
BYBLOCK
100
AcDbCircle
 10
-530.4999999999998
 20
126.073313610529
 30
0.0
 40
5.0
  0
LINE
  5
18200
330
1E
100
AcDbEntity
  8
SIZE
  6
BYBLOCK
100
AcDbLine
 10
-530.4999999999998
 20
126.073313610529
 30
0.0
 11
-520.5
 21
126.073313610529
 31
0.0
  0
TEXT
  5
18201
330
1E
100
AcDbEntity
  8
SIZE
  6
CONTINUOUS
100
AcDbText
 10
-70.71428571428571
 20
-452.9307606898337
 30
0.0
 40
50.0
  1
1170
 41
0.9
100
AcDbText
  0
CIRCLE
  5
18202
330
1E
100
AcDbEntity
  8
SIZE
  6
BYBLOCK
100
AcDbCircle
 10
585.0
 20
-462.9307606898335
 30
0.0
 40
5.0
  0
LINE
  5
18203
330
1E
100
AcDbEntity
  8
SIZE
  6
BYBLOCK
100
AcDbLine
 10
585.0
 20
-462.9307606898335
 30
0.0
 11
575.0
 21
-462.9307606898335
 31
0.0
  0
TEXT
  5
18204
330
1E
100
AcDbEntity
  8
SIZE
  6
CONTINUOUS
100
AcDbText
 10
-355.25
 20
136.0733136105291
 30
0.0
 40
50.0
  1
530.5
 41
0.9
100
AcDbText
  0
TEXT
  5
18205
330
1E
100
AcDbEntity
  8
SIZE
  6
CONTINUOUS
100
AcDbText
 10
134.6000000000003
 20
136.0733136105291
 30
0.0
 40
50.0
  1
449.2
 41
0.9
100
AcDbText
  0
CIRCLE
  5
18206
330
1E
100
AcDbEntity
  8
SIZE
  6
BYBLOCK
100
AcDbCircle
 10
0.0000000000000029
 20
126.073313610529
 30
0.0
 40
5.0
  0
LINE
  5
18207
330
1E
100
AcDbEntity
  8
SIZE
  6
BYBLOCK
100
AcDbLine
 10
0.0000000000000029
 20
126.073313610529
 30
0.0
 11
10.0
 21
126.073313610529
 31
0.0
  0
CIRCLE
  5
18208
330
1E
100
AcDbEntity
  8
SIZE
  6
BYBLOCK
100
AcDbCircle
 10
0.0000000000000029
 20
126.073313610529
 30
0.0
 40
5.0
  0
LINE
  5
18209
330
1E
100
AcDbEntity
  8
SIZE
  6
BYBLOCK
100
AcDbLine
 10
0.0000000000000029
 20
126.073313610529
 30
0.0
 11
-9.999999999999996
 21
126.073313610529
 31
0.0
  0
TEXT
  5
1820A
330
1E
100
AcDbEntity
  8
SIZE
  6
CONTINUOUS
100
AcDbText
 10
615.0
 20
136.0733136105291
 30
0.0
 40
50.0
  1
135.8
 41
0.9
100
AcDbText
  0
CIRCLE
  5
1820B
330
1E
100
AcDbEntity
  8
SIZE
  6
BYBLOCK
100
AcDbCircle
 10
449.2000000000007
 20
126.073313610529
 30
0.0
 40
5.0
  0
LINE
  5
1820C
330
1E
100
AcDbEntity
  8
SIZE
  6
BYBLOCK
100
AcDbLine
 10
449.2000000000007
 20
126.073313610529
 30
0.0
 11
439.2000000000006
 21
126.073313610529
 31
0.0
  0
CIRCLE
  5
1820D
330
1E
100
AcDbEntity
  8
SIZE
  6
BYBLOCK
100
AcDbCircle
 10
449.2000000000007
 20
126.073313610529
 30
0.0
 40
5.0
  0
LINE
  5
1820E
330
1E
100
AcDbEntity
  8
SIZE
  6
BYBLOCK
100
AcDbLine
 10
449.2000000000007
 20
126.073313610529
 30
0.0
 11
439.2000000000006
 21
126.073313610529
 31
0.0
  0
CIRCLE
  5
1820F
330
1E
100
AcDbEntity
  8
SIZE
  6
BYBLOCK
100
AcDbCircle
 10
585.0
 20
126.073313610529
 30
0.0
 40
5.0
  0
LINE
  5
18210
330
1E
100
AcDbEntity
  8
SIZE
  6
BYBLOCK
100
AcDbLine
 10
585.0
 20
126.073313610529
 30
0.0
 11
595.0
 21
126.073313610529
 31
0.0
  0
LINE
  5
18211
330
1E
100
AcDbEntity
  8
OUTLINE
  6
CONTINUOUS
100
AcDbLine
 10
582.5644490638698
 20
-274.4906542420201
 30
0.0
 11
582.3646490640717
 21
-274.4906542420201
 31
0.0
  0
SPLINE
  5
18213
330
1E
100
AcDbEntity
  8
OUTLINE
  6
CONTINUOUS
100
AcDbSpline
210
0.0
220
0.0
230
1.0
 70
     8
 71
     3
 72
    11
 73
     7
 74
     5
 42
0.0000000001
 43
0.0000000001
 44
0.00000001
 40
0.0
 40
0.0
 40
0.0
 40
0.0
 40
278.7966010391188
 40
579.3620883733419
 40
856.8475679950394
 40
1158.81078480843
 40
1158.81078480843
 40
1158.81078480843
 40
1158.81078480843
 10
579.1808429683424
 20
-285.5616043143518
 30
0.0
 10
486.3291854966456
 20
-289.5457530855726
 30
0.0
 10
293.3758640379833
 20
-297.8251393463866
 30
0.0
 10
7.736729025807079
 20
-301.0355257283736
 30
0.0
 10
-285.6222905715191
 20
-298.0148325290993
 30
0.0
 10
-478.6105167385902
 20
-289.8279601456331
 30
0.0
 10
-579.180844946919
 20
-285.5616043143509
 30
0.0
 11
579.1808429683424
 21
-285.5616043143518
 31
0.0
 11
300.5834673679817
 21
-296.0994911817151
 31
0.0
 11
0.0432899865008949
 21
-299.9999983448423
 31
0.0
 11
-277.422298115558
 21
-296.6775263446568
 31
0.0
 11
-579.180844946919
 21
-285.5616043143509
 31
0.0
  0
LINE
  5
18216
330
1E
100
AcDbEntity
  8
OUTLINE
  6
CONTINUOUS
100
AcDbLine
 10
-576.9225009892908
 20
0.0
 30
0.0
 11
576.9224990107102
 21
0.0
 31
0.0
  0
LINE
  5
18218
330
1E
100
AcDbEntity
  8
OUTLINE
  6
CONTINUOUS
100
AcDbLine
 10
579.3816149965188
 20
-265.999411521806
 30
0.0
 11
576.3236602163651
 21
-265.999411521806
 31
0.0
  0
LINE
  5
18219
330
1E
100
AcDbEntity
  8
OUTLINE
  6
CONTINUOUS
100
AcDbLine
 10
584.9144990107142
 20
-114.1511542420202
 30
0.0
 11
583.3384655096997
 21
-114.1511542420202
 31
0.0
  0
LINE
  5
1821A
330
1E
100
AcDbEntity
  8
OUTLINE
  6
CONTINUOUS
100
AcDbLine
 10
-585.0
 20
-115.6496542420209
 30
0.0
 11
-583.8731573974327
 21
-115.6496542420209
 31
0.0
  0
LINE
  5
1822C
330
1E
100
AcDbEntity
  8
OUTLINE
  6
CONTINUOUS
100
AcDbLine
 10
-584.6178948774977
 20
-93.69668817252659
 30
0.0
 11
-578.1089254364395
 21
-83.12457591999919
 31
0.0
  0
LINE
  5
1822E
330
1E
100
AcDbEntity
  8
OUTLINE
  6
CONTINUOUS
100
AcDbLine
 10
-579.5151222693622
 20
-275.9891542420219
 30
0.0
 11
-579.180844946919
 21
-285.5616043143509
 31
0.0
  0
LINE
  5
1822F
330
1E
100
AcDbEntity
  8
OUTLINE
  6
CONTINUOUS
100
AcDbLine
 10
-579.8808063739308
 20
-265.5173309327246
 30
0.0
 11
-585.0
 21
-115.6496542420209
 31
0.0
  0
ARC
  5
18231
330
1E
100
AcDbEntity
  8
OUTLINE
  6
CONTINUOUS
100
AcDbCircle
 10
-581.3568792680032
 20
-273.9911542420204
 30
0.0
 40
0.9989999999999991
100
AcDbArc
 50
90.0
 51
179.0000000000115
  0
ARC
  5
18232
330
1E
100
AcDbEntity
  8
OUTLINE
  6
CONTINUOUS
100
AcDbCircle
 10
-581.5469889025917
 20
-274.9905509784903
 30
0.0
 40
0.9986033479336484
100
AcDbArc
 50
181.9656400169461
 51
269.9764428195666
  0
LINE
  5
18233
330
1E
100
AcDbEntity
  8
OUTLINE
  6
CONTINUOUS
100
AcDbLine
 10
-579.5151222693622
 20
-275.9891542420219
 30
0.0
 11
-581.5473994787025
 21
-275.9891542420218
 31
0.0
  0
LINE
  5
18234
330
1E
100
AcDbEntity
  8
OUTLINE
  6
CONTINUOUS
100
AcDbLine
 10
-582.3646510806065
 20
-274.4906564280353
 30
0.0
 11
-582.3558531737126
 21
-273.9839337358862
 31
0.0
  0
LINE
  5
18235
330
1E
100
AcDbEntity
  8
OUTLINE
  6
CONTINUOUS
100
AcDbLine
 10
-582.5450046487112
 20
-275.024803234045
 30
0.0
 11
-582.5644510424496
 21
-274.4906542420201
 31
0.0
  0
ARC
  5
18236
330
1E
100
AcDbEntity
  8
OUTLINE
  6
CONTINUOUS
100
AcDbCircle
 10
-576.3306659212702
 20
-266.9986637134261
 30
0.0
 40
0.9992531575737155
100
AcDbArc
 50
2.0141688132365
 51
89.92033317421862
  0
ARC
  5
18237
330
1E
100
AcDbEntity
  8
OUTLINE
  6
CONTINUOUS
100
AcDbCircle
 10
-579.3816069825878
 20
-265.4999081839894
 30
0.0
 40
0.4995033378277186
100
AcDbArc
 50
181.9988905403939
 51
269.9996301448811
  0
LINE
  5
18238
330
1E
100
AcDbEntity
  8
OUTLINE
  6
CONTINUOUS
100
AcDbLine
 10
-575.1215389879726
 20
-272.9921542420224
 30
0.0
 11
-575.3320301361927
 21
-266.963543324995
 31
0.0
  0
ARC
  5
1823A
330
1E
100
AcDbEntity
  8
OUTLINE
  6
CONTINUOUS
100
AcDbCircle
 10
-582.9164560716945
 20
-94.74403265786532
 30
0.0
 40
1.997955074786593
100
AcDbArc
 50
148.3850433034911
 51
180.0050279050699
  0
ARC
  5
1823B
330
1E
100
AcDbEntity
  8
OUTLINE
  6
CONTINUOUS
100
AcDbCircle
 10
-583.8731573974327
 20
-115.1501546634199
 30
0.0
 40
0.4994995786010936
100
AcDbArc
 50
270.0000496133994
 51
358.0000496134609
  0
LINE
  5
1823C
330
1E
100
AcDbEntity
  8
OUTLINE
  6
CONTINUOUS
100
AcDbLine
 10
-583.3384674882672
 20
-114.1511542420202
 30
0.0
 11
-583.373962085383
 21
-115.1675865150544
 31
0.0
  0
LINE
  5
1823D
330
1E
100
AcDbEntity
  8
OUTLINE
  6
CONTINUOUS
100
AcDbLine
 10
-584.9144111387941
 20
-94.74420798541087
 30
0.0
 11
-584.9145009892835
 21
-114.1511542420202
 31
0.0
  0
ARC
  5
18240
330
1E
100
AcDbEntity
  8
OUTLINE
  6
CONTINUOUS
100
AcDbCircle
 10
-584.9145009892835
 20
-78.93456334311395
 30
0.0
 40
7.99200000000012
100
AcDbArc
 50
328.3804935222821
 51
0.0
  0
LINE
  5
18241
330
1E
100
AcDbEntity
  8
OUTLINE
  6
CONTINUOUS
100
AcDbLine
 10
-576.9225009892831
 20
-78.93456334311395
 30
0.0
 11
-576.9225009892908
 21
0.0
 31
0.0
  0
LINE
  5
18243
330
1E
100
AcDbEntity
  8
OUTLINE
  6
CONTINUOUS
100
AcDbLine
 10
578.1089234578593
 20
-83.12457591999919
 30
0.0
 11
584.6178928989303
 21
-93.69668817252572
 31
0.0
  0
LINE
  5
1825B
330
1E
100
AcDbEntity
  8
OUTLINE
  6
CONTINUOUS
100
AcDbLine
 10
579.8808043920307
 20
-265.5173310281143
 30
0.0
 11
585.0
 21
-115.6496542420209
 31
0.0
  0
ARC
  5
1825D
330
1E
100
AcDbEntity
  8
OUTLINE
  6
CONTINUOUS
100
AcDbCircle
 10
581.5473973521692
 20
-274.9901543946752
 30
0.0
 40
0.9989998473458838
100
AcDbArc
 50
270.0000084860429
 51
358.0000084859597
  0
ARC
  5
1825E
330
1E
100
AcDbEntity
  8
OUTLINE
  6
CONTINUOUS
100
AcDbCircle
 10
581.3568772894232
 20
-273.9911542420204
 30
0.0
 40
0.9990000000008606
100
AcDbArc
 50
0.9999999999882817
 51
90.0
  0
LINE
  5
18260
330
1E
100
AcDbEntity
  8
OUTLINE
  6
CONTINUOUS
100
AcDbLine
 10
579.5151202907946
 20
-275.9891542420218
 30
0.0
 11
581.5473973521692
 21
-275.9891542420218
 31
0.0
  0
LINE
  5
18262
330
1E
100
AcDbEntity
  8
OUTLINE
  6
CONTINUOUS
100
AcDbLine
 10
582.545788640964
 20
-275.0250188386835
 30
0.0
 11
582.5644490638698
 21
-274.4906542420201
 31
0.0
  0
LINE
  5
18263
330
1E
100
AcDbEntity
  8
OUTLINE
  6
CONTINUOUS
100
AcDbLine
 10
582.3646491020261
 20
-274.4906564280353
 30
0.0
 11
582.3558511951451
 21
-273.9839337358862
 31
0.0
  0
ARC
  5
18264
330
1E
100
AcDbEntity
  8
OUTLINE
  6
CONTINUOUS
100
AcDbCircle
 10
576.3306014058307
 20
-266.9985671464546
 30
0.0
 40
0.9991561003631435
100
AcDbArc
 50
90.39803996597271
 51
177.0395602237165
  0
ARC
  5
18265
330
1E
100
AcDbEntity
  8
OUTLINE
  6
CONTINUOUS
100
AcDbCircle
 10
579.3816084578792
 20
-265.4999117605365
 30
0.0
 40
0.4994997613127146
100
AcDbArc
 50
270.0007500232645
 51
358.0014946953952
  0
LINE
  5
18266
330
1E
100
AcDbEntity
  8
OUTLINE
  6
CONTINUOUS
100
AcDbLine
 10
575.3327787468297
 20
-266.9469642969497
 30
0.0
 11
575.1215378182023
 21
-272.9921542420224
 31
0.0
  0
ARC
  5
1826B
330
1E
100
AcDbEntity
  8
OUTLINE
  6
CONTINUOUS
100
AcDbCircle
 10
582.9164990107074
 20
-94.74419131674492
 30
0.0
 40
1.998000000000905
100
AcDbArc
 50
359.9999999999348
 51
31.61950647767342
  0
ARC
  5
1826C
330
1E
100
AcDbEntity
  8
OUTLINE
  6
CONTINUOUS
100
AcDbCircle
 10
583.8731554186706
 20
-115.1501546636072
 30
0.0
 40
0.4994995784139655
100
AcDbArc
 50
181.9999504074869
 51
269.9999504074446
  0
LINE
  5
1826D
330
1E
100
AcDbEntity
  8
OUTLINE
  6
CONTINUOUS
100
AcDbLine
 10
583.3384655096997
 20
-114.151154242022
 30
0.0
 11
583.3739601068153
 21
-115.1675865154174
 31
0.0
  0
LINE
  5
1826E
330
1E
100
AcDbEntity
  8
OUTLINE
  6
CONTINUOUS
100
AcDbLine
 10
584.9144990107142
 20
-94.74419131674677
 30
0.0
 11
584.9144990107142
 21
-114.1511542420202
 31
0.0
  0
ARC
  5
1827F
330
1E
100
AcDbEntity
  8
OUTLINE
  6
CONTINUOUS
100
AcDbCircle
 10
584.9144990107142
 20
-78.93456334311395
 30
0.0
 40
7.991999999999991
100
AcDbArc
 50
180.0
 51
211.6195064777177
  0
LINE
  5
18280
330
1E
100
AcDbEntity
  8
OUTLINE
  6
CONTINUOUS
100
AcDbLine
 10
576.9224990107102
 20
-78.93456334311395
 30
0.0
 11
576.9224990107102
 21
0.0
 31
0.0
  0
LINE
  5
18282
330
1E
100
AcDbEntity
  8
OUTLINE
  6
CONTINUOUS
100
AcDbLine
 10
-583.3384674882672
 20
-114.1511542420202
 30
0.0
 11
-584.9145009892835
 21
-114.1511542420202
 31
0.0
  0
LINE
  5
18283
330
1E
100
AcDbEntity
  8
OUTLINE
  6
CONTINUOUS
100
AcDbLine
 10
583.8731554186706
 20
-115.6496542420209
 30
0.0
 11
585.0
 21
-115.6496542420209
 31
0.0
  0
LINE
  5
18285
330
1E
100
AcDbEntity
  8
OUTLINE
  6
CONTINUOUS
100
AcDbLine
 10
575.1215378182023
 20
-272.9921542420195
 30
0.0
 11
581.3568772894232
 21
-272.9921542420195
 31
0.0
  0
LINE
  5
18286
330
1E
100
AcDbEntity
  8
OUTLINE
  6
CONTINUOUS
100
AcDbLine
 10
579.5151202907927
 20
-275.9891542420215
 30
0.0
 11
579.1808429683388
 21
-285.5616043143509
 31
0.0
  0
LINE
  5
18289
330
1E
100
AcDbEntity
  8
OUTLINE
  6
CONTINUOUS
100
AcDbLine
 10
-579.3816102069768
 20
-265.9994115218069
 30
0.0
 11
-576.3292765117492
 21
-265.9994115218037
 31
0.0
  0
LINE
  5
1828A
330
1E
100
AcDbEntity
  8
OUTLINE
  6
CONTINUOUS
100
AcDbLine
 10
-581.3568792680032
 20
-272.9921542420204
 30
0.0
 11
-575.1215389879726
 21
-272.9921542420224
 31
0.0
  0
LINE
  5
1828B
330
1E
100
AcDbEntity
  8
OUTLINE
  6
CONTINUOUS
100
AcDbLine
 10
-582.5644510424496
 20
-274.4906542420201
 30
0.0
 11
-582.3646510806065
 21
-274.4906564280353
 31
0.0
  0
ENDSEC
  0
SECTION
  2
OBJECTS
  0
DICTIONARY
  5
C
330
0
100
AcDbDictionary
  3
ACAD_GROUP
350
D
  3
ACAD_LAYOUT
350
19
  3
ACAD_MLINESTYLE
350
16
  3
ACAD_PLOTSETTINGS
350
18
  3
ACAD_PLOTSTYLENAME
350
E
  3
ACDBHEADERROUNDTRIPXREC
350
182F8
  0
DICTIONARY
  5
182B4
330
1E
100
AcDbDictionary
280
     1
  3
ACAD_LAYOUTSELFREF
360
1831A
  0
DICTIONARY
  5
182B2
330
1A
100
AcDbDictionary
280
     1
  3
ACAD_LAYOUTSELFREF
360
18319
  0
DICTIONARY
  5
D
102
{ACAD_REACTORS
330
C
102
}
330
C
100
AcDbDictionary
  0
DICTIONARY
  5
19
102
{ACAD_REACTORS
330
C
102
}
330
C
100
AcDbDictionary
  0
DICTIONARY
  5
16
102
{ACAD_REACTORS
330
C
102
}
330
C
100
AcDbDictionary
  3
STANDARD
350
17
  0
DICTIONARY
  5
18
102
{ACAD_REACTORS
330
C
102
}
330
C
100
AcDbDictionary
  0
ACDBDICTIONARYWDFLT
  5
E
102
{ACAD_REACTORS
330
C
102
}
330
C
100
AcDbDictionary
281
     1
  3
Normal
350
F
100
AcDbDictionaryWithDefault
340
F
  0
DICTIONARY
  5
182F8
102
{ACAD_REACTORS
330
C
102
}
330
C
100
AcDbDictionary
  3
CEPSNTYPE
350
18302
  3
DIMSTYLEDATA
350
18306
  3
FINGERPRINTGUID
350
18303
  3
HYPERLINKBASE
350
182FB
  3
INSUNITS
350
18301
  3
LAYOUTDICT
350
182FD
  3
LWETCUNION
350
18300
  3
PLOTSETDICT
350
182FE
  3
PLOTSTYLNAMDICT
350
182FF
  3
PSVPSCALE
350
18305
  3
PUCSBASE
350
18309
  3
PUCSORGBACK
350
1830F
  3
PUCSORGBOTTOM
350
1830B
  3
PUCSORGFRONT
350
1830E
  3
PUCSORGLEFT
350
1830C
  3
PUCSORGRIGHT
350
1830D
  3
PUCSORGTOP
350
1830A
  3
PUCSORTHOREF
350
18307
  3
PUCSORTHOVIEW
350
18308
  3
STYLESHEET
350
182FC
  3
TSTACKALIGN
350
182F9
  3
TSTACKSIZE
350
182FA
  3
UCSBASE
350
18312
  3
UCSORGBACK
350
18318
  3
UCSORGBOTTOM
350
18314
  3
UCSORGFRONT
350
18317
  3
UCSORGLEFT
350
18315
  3
UCSORGRIGHT
350
18316
  3
UCSORGTOP
350
18313
  3
UCSORTHOREF
350
18310
  3
UCSORTHOVIEW
350
18311
  3
VERSIONGUID
350
18304
  0
XRECORD
  5
1831A
102
{ACAD_REACTORS
330
182B4
102
}
330
182B4
100
AcDbXrecord
340
1E
  0
XRECORD
  5
18319
102
{ACAD_REACTORS
330
182B2
102
}
330
182B2
100
AcDbXrecord
340
1A
  0
MLINESTYLE
  5
17
102
{ACAD_REACTORS
330
16
102
}
330
16
100
AcDbMlineStyle
  2
STANDARD
 70
     0
  3

 62
   256
 51
90.0
 52
90.0
 71
     2
 49
0.5
 62
   256
  6
BYLAYER
 49
-0.5
 62
   256
  6
BYLAYER
  0
ACDBPLACEHOLDER
  5
F
102
{ACAD_REACTORS
330
E
102
}
330
E
100
AcDbPlaceHolder
280
     0
  0
XRECORD
  5
18302
102
{ACAD_REACTORS
330
182F8
102
}
330
182F8
100
AcDbXrecord
 90
        0
  0
XRECORD
  5
18306
102
{ACAD_REACTORS
330
182F8
102
}
330
182F8
100
AcDbXrecord
1000
DSTYLE
1002
{
1070
   341
340
46
1070
   342
340
46
1002
}
  0
XRECORD
  5
18303
102
{ACAD_REACTORS
330
182F8
102
}
330
182F8
100
AcDbXrecord
  1
{97DA8DB6-C4F0-4C3D-ABEB-53C4FBBC7EFF}
  0
XRECORD
  5
182FB
102
{ACAD_REACTORS
330
182F8
102
}
330
182F8
100
AcDbXrecord
  1

  0
XRECORD
  5
18301
102
{ACAD_REACTORS
330
182F8
102
}
330
182F8
100
AcDbXrecord
 90
        0
  0
XRECORD
  5
182FD
102
{ACAD_REACTORS
330
182F8
102
}
330
182F8
100
AcDbXrecord
340
19
  0
XRECORD
  5
18300
102
{ACAD_REACTORS
330
182F8
102
}
330
182F8
100
AcDbXrecord
 90
    10781
  0
XRECORD
  5
182FE
102
{ACAD_REACTORS
330
182F8
102
}
330
182F8
100
AcDbXrecord
340
18
  0
XRECORD
  5
182FF
102
{ACAD_REACTORS
330
182F8
102
}
330
182F8
100
AcDbXrecord
340
E
  0
XRECORD
  5
18305
102
{ACAD_REACTORS
330
182F8
102
}
330
182F8
100
AcDbXrecord
 40
0.0
  0
XRECORD
  5
18309
102
{ACAD_REACTORS
330
182F8
102
}
330
182F8
100
AcDbXrecord
340
0
  0
XRECORD
  5
1830F
102
{ACAD_REACTORS
330
182F8
102
}
330
182F8
100
AcDbXrecord
 10
0.0
 20
0.0
 30
0.0
  0
XRECORD
  5
1830B
102
{ACAD_REACTORS
330
182F8
102
}
330
182F8
100
AcDbXrecord
 10
0.0
 20
0.0
 30
0.0
  0
XRECORD
  5
1830E
102
{ACAD_REACTORS
330
182F8
102
}
330
182F8
100
AcDbXrecord
 10
0.0
 20
0.0
 30
0.0
  0
XRECORD
  5
1830C
102
{ACAD_REACTORS
330
182F8
102
}
330
182F8
100
AcDbXrecord
 10
0.0
 20
0.0
 30
0.0
  0
XRECORD
  5
1830D
102
{ACAD_REACTORS
330
182F8
102
}
330
182F8
100
AcDbXrecord
 10
0.0
 20
0.0
 30
0.0
  0
XRECORD
  5
1830A
102
{ACAD_REACTORS
330
182F8
102
}
330
182F8
100
AcDbXrecord
 10
0.0
 20
0.0
 30
0.0
  0
XRECORD
  5
18307
102
{ACAD_REACTORS
330
182F8
102
}
330
182F8
100
AcDbXrecord
340
0
  0
XRECORD
  5
18308
102
{ACAD_REACTORS
330
182F8
102
}
330
182F8
100
AcDbXrecord
 70
     0
  0
XRECORD
  5
182FC
102
{ACAD_REACTORS
330
182F8
102
}
330
182F8
100
AcDbXrecord
  1
u.ctb
  0
XRECORD
  5
182F9
102
{ACAD_REACTORS
330
182F8
102
}
330
182F8
100
AcDbXrecord
 90
        1
  0
XRECORD
  5
182FA
102
{ACAD_REACTORS
330
182F8
102
}
330
182F8
100
AcDbXrecord
 90
       70
  0
XRECORD
  5
18312
102
{ACAD_REACTORS
330
182F8
102
}
330
182F8
100
AcDbXrecord
340
0
  0
XRECORD
  5
18318
102
{ACAD_REACTORS
330
182F8
102
}
330
182F8
100
AcDbXrecord
 10
0.0
 20
0.0
 30
0.0
  0
XRECORD
  5
18314
102
{ACAD_REACTORS
330
182F8
102
}
330
182F8
100
AcDbXrecord
 10
0.0
 20
0.0
 30
0.0
  0
XRECORD
  5
18317
102
{ACAD_REACTORS
330
182F8
102
}
330
182F8
100
AcDbXrecord
 10
0.0
 20
0.0
 30
0.0
  0
XRECORD
  5
18315
102
{ACAD_REACTORS
330
182F8
102
}
330
182F8
100
AcDbXrecord
 10
0.0
 20
0.0
 30
0.0
  0
XRECORD
  5
18316
102
{ACAD_REACTORS
330
182F8
102
}
330
182F8
100
AcDbXrecord
 10
0.0
 20
0.0
 30
0.0
  0
XRECORD
  5
18313
102
{ACAD_REACTORS
330
182F8
102
}
330
182F8
100
AcDbXrecord
 10
0.0
 20
0.0
 30
0.0
  0
XRECORD
  5
18310
102
{ACAD_REACTORS
330
182F8
102
}
330
182F8
100
AcDbXrecord
340
0
  0
XRECORD
  5
18311
102
{ACAD_REACTORS
330
182F8
102
}
330
182F8
100
AcDbXrecord
 70
     0
  0
XRECORD
  5
18304
102
{ACAD_REACTORS
330
182F8
102
}
330
182F8
100
AcDbXrecord
  1
{255D72B0-8369-405E-8491-ABB6136269AC}
  0
ENDSEC
  0
EOF
